Band- Fenix Tx
Song- Threesome (Rhythm Guitar)
Album- Lechuza
Tabber- dieog rivas
Comments- [email protected]

Standard Tuning

Verse Type 1 (And if there’s nothing left to say/ and if you knows it’s all in your mind)
-----------------------------------------------------------------------
-----------------------------------------------------------------------
-77-77-77-77-44-44-44-44(22)(xxxx)-------------------------------------
-77-77-77-77-44-44-44-44(22)(xxxx)-------------------------------------
-55-55-55-55-22-22-22-22(11)(xxxx)-------------------------------------
-----------------------------------------------------------------------

Verse Type 2 (Lets try this all again)
-----------------------------------------------------------------------
-----------------------------------------------------------------------
-77777777777-444444444444-(66-7-9-7)-----------------------------------
-xxxxxxxxxxx-xxxxxxxxxxxx-(xx-x-x-x)-----------------------------------
-55555555555-222222222222-(44-5-7-5)-----------------------------------
-----------------------------------------------------------------------

Chorus Type 1 (and if you wanna dance and she wants to lead I wont mind)
-----------------------------------------------------------------------
-----------------------------------------------------------------------
----------------77-77-77-77-7------------------------------------------
-5555555555555--77-77-77-77-7------------------------------------------
-5555555555555--55-55-55-55-5------------------------------------------
-3333333333333---------------------------------------------------------

Chorus Type 2 (and if you wanna dance and she wants to lead I’ll go out of my way, I’ll do anything, and one word (your love) is all I need)
-----------------------------------------------------------------------
-----------------------------------------------------------------------
--------------77777777-4444444------------------7----------------------
--55555555555-77777777-4444444--5555555-7777777-7----------------------
--55555555555-55555555-2222222--5555555-7777777-5----------------------
--33333333333-------------------3333333-5555555------------------------

Post Chorus (palm mute ending three chords)
-----------------------------------------------------------------------
-----------------------------------------------------------------------
-77-77-77-77765--------------------------------------------------------
-77-77-77-77765--------------------------------------------------------
-55-55-55-55543--------------------------------------------------------
-----------------------------------------------------------------------

Order-
Verse type 1
Chorus type 1
Verse type 2
Chorus type 2
Post chorus
Verse type 1
Chorus type 2
Verse type 2
Chorus type 2
Post chorus




Ваше мнение



Капча