Date - Wednesday 6th September 2001 - 5:42
Author - Chris Love - [email protected]
Subject - f/fenix_tx/threesome
Artist - Fenix tx
Title - Threesome
E-mail me with any comments, changes, suggestions etc.
I am declaring this file all of my own work!!
Normal tuning
Play with medium distortion
www.bullettrading.co.uk for all your bootlegging needs
Sorry if it's a bit long winded!!!!!
Legend
-----
x - scratch
: - let ring
pm - palm mute
- slide down
/ - slide up
b - bend
r - release

E -----------------------------------------------------------------
B -----------------------------------------------------------------
G -7-7---7-7---7-7---7-7-------------------------------------------
D -7-7---7-7---7-7---7-7-------------------------------------------
A -5-5---5-5---5-5---5-5-------------------------------------------
E -----------------------------------------------------------------
E -----------------------------------------------------------------
B -----------------------------------------------------------------
G -7-7---7-7---7-7---7-7-------------------------x-x-x-x-----------
D -7-7---7-7---7-7---7-7---9-9---9-9---9-9---9-9-x-x-x-x-----------
A -5-5---5-5---5-5---5-5---9-9---9-9---9-9---9-9-x-x-x-x-----------
E -------------------------7-7---7-7---7-7---7-7-x-x-x-x-----------
E -----------------------------------------------------------------
B -----------------------------------------------------------------
G -7-7---7-7---7-7---7-7-------------------------------------------
D -7-7---7-7---7-7---7-7---9-9---9-9---9-9---9:--------------------
A -5-5---5-5---5-5---5-5---9-9---9-9---9-9---9:--------------------
E -------------------------7-7---7-7---7-7---7:--------------------
E -----------------------------------------------------------------
B -----------------------------------------------------------------
G ----------------------------------7-7---7-7---7-7---7:-----------
D -5-5-5-5-5-5-5-5-5-5-5-5-5-5-5-5--7-7---7-7---7-7---7:-----------
A -5-5-5-5-5-5-5-5-5-5-5-5-5-5-5-5--5-5---5-5---5-5---5:-----------
E -3-3-3-3-3-3-3-3-3-3-3-3-3-3-3-3---------------------------------
E -----------------------------------------------------------------
B -----------------------------------------------------------------
G -7-7-7-7-7-7-7-7-7-7-7-7-7-7-7-7-7-7-7-7-7-7-7-7-7-7-7-7-7-7-7-7-
D -7-7-7-7-7-7-7-7-7-7-7-7-7-7-7-7-7-7-7-7-7-7-7-7-7-7-7-7-7-7-7-7-
A -5-5-5-5-5-5-5-5-5-5-5-5-5-5-5-5-5-5-5-5-5-5-5-5-5-5-5-5-5-5-5-5-
E -----------------------------------------------------------------
E -----------------------------------------------------------------
B -----------------------------------------------------------------
G -----------------------------------------------------------------
D -9-9-9-9-9-9-9-9-9-9-9-9-9-9-9-9-9-9-9-9-9-9-9-9-9-9-9-9-9-9-9-9-
A -9-9-9-9-9-9-9-9-9-9-9-9-9-9-9-9-9-9-9-9-9-9-9-9-9-9-9-9-9-9-9-9-
E -7-7-7-7-7-7-7-7-7-7-7-7-7-7-7-7-7-7-7-7-7-7-7-7-7-7-7-7-7-7-7-7-
E -----------------------------------------------------------------
B -----------------------------------------------------------------
G -7-7-7-7-7-7-7-7-7-7-7-7-7-7-7-7-7-7-7-7-7-7-7-7-7-7-7-7-7-7-7-7-
D -7-7-7-7-7-7-7-7-7-7-7-7-7-7-7-7-7-7-7-7-7-7-7-7-7-7-7-7-7-7-7-7-
A -5-5-5-5-5-5-5-5-5-5-5-5-5-5-5-5-5-5-5-5-5-5-5-5-5-5-5-5-5-5-5-5-
E -----------------------------------------------------------------
E -----------------------------------------------------------------
B -----------------------------------------------------------------
G -----------------------------------------------------------------
D -9-9-9-9-9-9-9-9-9-9-9-9-9-9-9-9-9-9-9-9-9-9-9-9-9-9-9-9-9-9-9-9-
A -9-9-9-9-9-9-9-9-9-9-9-9-9-9-9-9-9-9-9-9-9-9-9-9-9-9-9-9-9-9-9-9-
E -7-7-7-7-7-7-7-7-7-7-7-7-7-7-7-7-7-7-7-7-7-7-7-7-7-7-7-7-7-7-7-7-
E -----------------------------------------------------------------
B -----------------------------------------------------------------
G ---------------------------------7-7-7-7-7-7-7-7-----------------
D -5-5-5-5-5-5-5-5-5-5-5-5-5-5-5-5-7-7-7-7-7-7-7-7-9-9-9-9-9-9-9-9-
A -5-5-5-5-5-5-5-5-5-5-5-5-5-5-5-5-5-5-5-5-5-5-5-5-9-9-9-9-9-9-9-9-
E -3-3-3-3-3-3-3-3-3-3-3-3-3-3-3-3-----------------7-7-7-7-7-7-7-7-
E -----------------------------------------------------------------
B -----------------------------------------------------------------
G --------------------------------7:-------------------------------
D -5-5-5-5-5-5-5-5-7-7-7-7-7-7-7-7:-------------------------------
A -5-5-5-5-5-5-5-5-7-7-7-7-7-7-7-5:-------------------------------
E -3-3-3-3-3-3-3-3-5-5-5-5-5-5-5----------------------------------
E -----------------------------------------------------------------
B -----------------------------------------------------------------
G -7-7---7-7---7-7---7-7-7-6-5---------------------------------
D -7-7---7-7---7-7---7-7-7-6-5---------------------------------
A -5-5---5-5---5-5---5-5-5-4-3---------------------------------
E -----------------------------------------------------------------
-pm--
E -----------------------------------------------------------------
B -----------------------------------------------------------------
G -7-7---7-7---7-7---7-7-------------------------x-x-x-x-----------
D -7-7---7-7---7-7---7-7---9-9---9-9---9-9---9-9-x-x-x-x-----------
A -5-5---5-5---5-5---5-5---9-9---9-9---9-9---9-9-x-x-x-x-----------
E -------------------------7-7---7-7---7-7---7-7-x-x-x-x-----------
E -----------------------------------------------------------------
B -----------------------------------------------------------------
G -7-7---7-7---7-7---7-7-------------------------------------------
D -7-7---7-7---7-7---7-7---9-9---9-9---9-9---9:--------------------
A -5-5---5-5---5-5---5-5---9-9---9-9---9-9---9:--------------------
E -------------------------7-7---7-7---7-7---7:--------------------
E -----------------------------------------------------------------
B -----------------------------------------------------------------
G ---------------------------------7-7-7-7-7-7-7-7-----------------
D -5-5-5-5-5-5-5-5-5-5-5-5-5-5-5-5-7-7-7-7-7-7-7-7-9-9-9-9-9-9-9-9-
A -5-5-5-5-5-5-5-5-5-5-5-5-5-5-5-5-5-5-5-5-5-5-5-5-9-9-9-9-9-9-9-9-
E -3-3-3-3-3-3-3-3-3-3-3-3-3-3-3-3-----------------7-7-7-7-7-7-7-7-
E -----------------------------------------------------------------
B -----------------------------------------------------------------
G --------------------------------7:-------------------------------
D -5-5-5-5-5-5-5-5-7-7-7-7-7-7-7-7:-------------------------------
A -5-5-5-5-5-5-5-5-7-7-7-7-7-7-7-5:-------------------------------
E -3-3-3-3-3-3-3-3-5-5-5-5-5-5-5----------------------------------
E -----------------------------------------------------------------
B -----------------------------------------------------------------
G -7-7-7-7-7-7-7-7-7-7-7-7-7-7-7-7-7-7-7-7-7-7-7-7-7-7-7-7-7-7-7-7-
D -7-7-7-7-7-7-7-7-7-7-7-7-7-7-7-7-7-7-7-7-7-7-7-7-7-7-7-7-7-7-7-7-
A -5-5-5-5-5-5-5-5-5-5-5-5-5-5-5-5-5-5-5-5-5-5-5-5-5-5-5-5-5-5-5-5-
E -----------------------------------------------------------------
E -----------------------------------------------------------------
B -----------------------------------------------------------------
G -----------------------------------------------------------------
D -9-9-9-9-9-9-9-9-9-9-9-9-9-9-9-9-9-9-9-9-9-9-9-9-9-9-9-9-9-9-9-9-
A -9-9-9-9-9-9-9-9-9-9-9-9-9-9-9-9-9-9-9-9-9-9-9-9-9-9-9-9-9-9-9-9-
E -7-7-7-7-7-7-7-7-7-7-7-7-7-7-7-7-7-7-7-7-7-7-7-7-7-7-7-7-7-7-7-7-
E -----------------------------------------------------------------
B -----------------------------------------------------------------
G -7-7-7-7-7-7-7-7-7-7-7-7-7-7-7-7-7-7-7-7-7-7-7-7-7-7-7-7-7-7-7-7-
D -7-7-7-7-7-7-7-7-7-7-7-7-7-7-7-7-7-7-7-7-7-7-7-7-7-7-7-7-7-7-7-7-
A -5-5-5-5-5-5-5-5-5-5-5-5-5-5-5-5-5-5-5-5-5-5-5-5-5-5-5-5-5-5-5-5-
E -----------------------------------------------------------------
E -----------------------------------------------------------------
B -----------------------------------------------------------------
G -----------------------------------------------------------------
D -9-9-9-9-9-9-9-9-9-9-9-9-9-9-9-9-9-9-9-9-9-9-9-9-9-9-9-9-9-9-9-9-
A -9-9-9-9-9-9-9-9-9-9-9-9-9-9-9-9-9-9-9-9-9-9-9-9-9-9-9-9-9-9-9-9-
E -7-7-7-7-7-7-7-7-7-7-7-7-7-7-7-7-7-7-7-7-7-7-7-7-7-7-7-7-7-7-7-7-
E -----------------------------------------------------------------
B -----------------------------------------------------------------
G -----------------------------------------------------------------
D -5-5-5-5-5-5-5-5-5-5-5-5-5-5-5-5-5-5-5-5-5-5-5-5-5-5-5-5-5-5-5-5-
A -5-5-5-5-5-5-5-5-5-5-5-5-5-5-5-5-5-5-5-5-5-5-5-5-3-3-3-3-3-3-3-3-
E -3-3-3-3-3-3-3-3-3-3-3-3-3-3-3-3-3-3-3-3-3-3-3-3-3-3-3-3-3-3-3-3-
E -----------------------------------------------------------------
B -----------------------------------------------------------------
G -7-7-7-7-7-7-7-7-7-7-7-7-7-7-7-7---------------------------------
D -7-7-7-7-7-7-7-7-7-7-7-7-7-7-7-7-9-9-9-9-9-9-9-9-9-9-9-9-9-9-9-9-
A -5-5-5-5-5-5-5-5-5-5-5-5-5-5-5-5-9-9-9-9-9-9-9-9-9-9-9-9-9-9-9-9-
E ---------------------------------7-7-7-7-7-7-7-7-7-7-7-7-7-7-7-7-
E -----------------------------------------------------------------
B -----------------------------------------------------------------
G ------------------------------------------------------------7:---
D -5-5-5-5-5-5-5-5-5-5-5-5-5-5-5-5-7-7-7-7-7-7-7-7-7-7-7-7-7-7:---
A -5-5-5-5-5-5-5-5-5-5-5-5-5-5-5-5-7-7-7-7-7-7-7-7-7-7-7-7-7-7:---
E -3-3-3-3-3-3-3-3-3-3-3-3-3-3-3-3-5-5-5-5-5-5-5-5-5-5-5-5-5------
E -----------------------------------------------------------------
B -----------------------------------------------------------------
G -7-7:--7-7:---7-7:---7-7:-7-6-5---------------------------------
D -7-7:--7-7:---7-7:---7-7:-7-6-5---------------------------------
A -5-5:--5-5:---5-5:---5-5:-5-4-3---------------------------------
E -----------------------------------------------------------------
-pm--
Enjoy!!!
_________________________________________________________________
Get your FREE download of MSN Explorer at http://explorer.msn.com/intl.asp




Ваше мнение



Капча