------------------------------------------------------------------------
FENIX TX - SOMETHING BAD IS GONNA HAPPEN
------------------------------------------------------------------------

By: -c-h-r-i-s- ([email protected])

Half Step Down TuningIntro:
Guitar 1:
--------0-------------0------------
--------0-------------0------------
-----------------------------------
-2-------------2---------------
-2-------------2---------------
-0-------------0---------------

Guitar 2:
-----------------------------------
-----------------------------------
-----------------------------------
-2-------------2--------
-2-------------2--------
-0-------------0--------


Guitar 1: (x2)
Guitar 2: (x4)
-------------------------------
-------------------------------
-------------------------------
-2--5--5/75--x3--8-8-8-8-8-8--
-2--5--5/75------8-8-8-8-8-8--
-0--3--3/53------6-6-6-6-6-6--


Guitar 1 plays this after played through the part above 2 times:
------------------------------------------------------------------------------
------------------------------------------------------------------------------
----------------------------------------12--12h14h12------14b-14b-14b--12-----
----5--5h7h5--x3--7b-7b-7b--5-----//14----------------x3-------------------14-
-7-----------------------------7----------------------------------------------
------------------------------------------------------------------------------

then both guitars play this:
--------------------
--------------------
--------------------
-3-3-2--2--2--2--2--
-3-3-2--2--2--2--2--
-1-1-0--0--0--0--0--
Verse 1:
-------------------------
-------------------------
-------------------------
-3-3-2--3--3-3-2--3-3-2--x4
-3-3-2--3--3-3-2--3-3-2--
-1-1-0--1--1-1-0--1-1-0--

----------------------------------
----------------------------------
---------------------4-4-4-4-4-4--
-3-3-2--let---x4-----x-x-x-x-x-x--
-3-3-2- ring---------2-2-2-2-2-2--
-1-1-0----------------------------

Chorus 1: (x4)
-------------------------------
-------------------------------
-------------------------------
-2--5--5/75--x3--8-8-8-8-8-8--
-2--5--5/75------8-8-8-8-8-8--
-0--3--3/53------6-6-6-6-6-6--

then both guitars play this:
--------------------
--------------------
--------------------
-3-3-2--2--2--2--2--
-3-3-2--2--2--2--2--
-1-1-0--0--0--0--0--

Verse 2:
---------------------------
---------------------------
---------------------------
-3-3-2--3--3-3-2--3-3-2----x4
-3-3-2--3--3-3-2--3-3-2----
-1-1-0--1--1-1-0--1-1-0----

-------------------------
-------------------------
-------------------------
-3-3-2--3--3-3-2--3-3-2--x4
-3-3-2--3--3-3-2--3-3-2--
-1-1-0--1--1-1-0--1-1-0--
.......palm mute.........

----------------------------------
----------------------------------
---------------------4-4-4-4-4-4--
-3-3-2--let---x4-----x-x-x-x-x-x--
-3-3-2- ring---------2-2-2-2-2-2--
-1-1-0----------------------------
Chorus 2: (x4)
-------------------------------
-------------------------------
-------------------------------
-2--5--5/75--x3--8-8-8-8-8-8--
-2--5--5/75------8-8-8-8-8-8--
-0--3--3/53------6-6-6-6-6-6--

then both guitars play this:
--------------------
--------------------
--------------------
-3-3-2--2--2--2--2--
-3-3-2--2--2--2--2--
-1-1-0--0--0--0--0--Solo:
-20-20--19-19--18-18--17-17---------------------------------------------------
-----------------------------18-18--17-17--16-16--15-15-----------------------
---------------------------------------------------------16-16--15-15--14-14--
------------------------------------------------------------------------------
------------------------------------------------------------------------------
------------------------------------------------------------------------------


------------------------------------------------------------------------------
------------------------------------------------------------------------------
-13-13--14b--12-12------------------12----------------------12----------------
--------------------14-14b--12--14------14--14-14b--12--14------14--14-14b----
------------------------------------------------------------------------------
------------------------------------------------------------------------------


-----------------------------12b-12b-12b----------------------------------
-----------------12------15-----------------------------------------------
---------12----------14-------------------14-14-13--14-14-13--14-14-13----
-12--14------14-----------------------------------------------------------
--------------------------------------------------------------------------
--------------------------------------------------------------------------


-----------------------------------------------------------------13-12----
-----------------------------------13-13-12--13-13-12--13-13-12-----------
-14-14-13--14-14-13--14-14-13---------------------------------------------
--------------------------------------------------------------------------
--------------------------------------------------------------------------
--------------------------------------------------------------------------


-12-12-12-12-12-12-12-12-12-12-12--
--------------------------------------------
--------------------------------------------
--------------------------------------------
--------------------------------------------
--------------------------------------------

Breakdown:

Guitar 2:
----------------------------
----------------------------
----------------------------
-2--5--5/75---2--5--5/75--
-2--5--5/75---2--5--5/75--
-0--3--3/53---0--3--3/53--

Guitar 1:
----------------------------
----------------------------
----------------------------
-2-------------2------------
-2-------------2------------
-0-------------0------------Chorus 3: (x4)

Guitar 1: (x2)
Guitar 2: (x4)
-------------------------------
-------------------------------
-------------------------------
-2--5--5/75--x3--8-8-8-8-8-8--
-2--5--5/75------8-8-8-8-8-8--
-0--3--3/53------6-6-6-6-6-6--


Guitar 1 plays this after played through the part above 2 times:
------------------------------------------------------------------------------
------------------------------------------------------------------------------
----------------------------------------12--12h14h12------14b-14b-14b--12-----
----5--5h7h5--x3--7b-7b-7b--5-----//14----------------x3----------------------
-7-----------------------------7----------------------------------------------
------------------------------------------------------------------------------


----------------------------------------
----------------------------------------
-14b-14b-14b--12--14b-14b-14b--12-------
-----------------------------------14---
----------------------------------------
----------------------------------------

Outro:
--------------------
--------------------
--------------------
-3-3-2--2--2--2--2--
-3-3-2--2--2--2--2--
-1-1-0--0--0--0--0--

--------------------
--------------------
--------------------
-3-3-2--let---------
-3-3-2- ring--------
-1-1-0--------------


Any comments? questions? etc. Email to [email protected]
====




Ваше мнение



Капча