Fenix TX, Rooster Song.
Tabbed by Justin, [email protected]

Number of times isn't indicated.

Verses
g-7---------
d-7-5-7-----
a-5-5-7-----
E---3-5-----

Chorus
g-------
d-5-7--765---
a-5-7--765---
E-3-5--543---

/=slide
g-7/976-6/7----
d----------------
a-5/754-4/5----
E----------------




Ваше мнение



Капча