----------------------------------------------------------------------
Ordinary World - Fenix TX
----------------------------------------------------------------------

By:Clint Paul [email protected]

[email protected]-----
B|--------------------------------------------------------------------
G|4-------2-----------------------------------------------------------
D|4---4---2---2-------------------------------------------------------
A|2---4---0---2-------------------------------------------------------
E|----2-------0-------------------------------------------------------

You can figure out the timing
e|121197//14121197-0-7-0-7---7-0-7-5--------------------
B|--------------------------------------------------------------------
G|--------------------------------------------------------------------
D|--------------------------------------------------------------------
A|--------------------------------------------------------------------
E|--------------------------------------------------------------------

Came in...(Verse)
e|--------------------------------------------------------------------
B|--------------------------------------------------------------------
G|6-------------------------------------------------------------------
D|6--2--------4------4------------------------------------------------
A|4--2--------4------4------------------------------------------------
E|---0---2-2--2--2-2-2------------------------------------------------
* * * * *=palm mute
Pre-Chorus All Palm Muted
e|--------------------------------------------------------------------
B|--------------------------------------------------------------------
G|6-----8--9----------------------------------------------------------
D|6--6--8--9----------------------------------------------------------
A|4--6--6--7----------------------------------------------------------
E|---4----------------------------------------------------------------

But I won't cry...(Chorus)
e|--------------------------------------------------------------------
B|--------------------------------------------------------------------
G|4-----2-------------------------------------------------------------
D|4--4--2--2----------------------------------------------------------
A|2--4--0--2----------------------------------------------------------
E|---2-----0----------------------------------------------------------

After 1st Chorus
e|--------------------------------------------------------------------
B|--------------------------------------------------------------------
G|6-------------------------------------------------------------------
D|6-------------------------------------------------------------------
A|4-------------------------------------------------------------------
E|--------------------------------------------------------------------

After 2nd Chorus....Also the whole ending
e|--------------------------------------------------------------------
B|--------------------------------------------------------------------
G|9864///119864---------------------------------
D|xxxx///xxxxx-----------------------------------
A|7642///97642-----------------------------------
E|--------------------------------------------------------------------
...And after that
e|--------------------------------------------------------------------
B|--------------------------------------------------------------------
G|64---------------------------------------------------------------
D|xx---------------------------------------------------------------
A|42---------------------------------------------------------------
E|--------------------------------------------------------------------

There ya go kids..you all can figure out the timings and all that for yourselves.
..Other than that....just enjoy it.
========================================================================




Ваше мнение



Капча