-----------------------------------------------------------------------------
MINIMUM WAGE - Fenix TX
------------------------------------------------------------------------------
-
Tabbed By:justin
Intro. x2 Palm Mute
e|---------------------------------------------------------------------------|
B|---------------------------------------------------------------------------|
G|---9-9-9-9-9-9-9-9---------------------------------------------------------|
D|---9-9-9-9-9-9-9-9-9-9-9-9-9-9-9-9--7-7-7-7-7-7-7-7--9-9-9-9 9-9 9-9-------|
A|---7-7-7-7-7-7-7-7-9-9-9-9-9-9-9-9--7-7-7-7-7-7-7-7--9-9-9-9-9-9-9-9-------|
E|-------------------7-7-7-7-7-7-7-7--5-5-5-5-5-5-5-5--7-7-7-7-7-7-7-7-------|
Verse x2
e|---------------------------------------------------------------------------|
B|---------------------------------------------------------------------------|
G|---9-----------------------------------------------------------------------|
D|---9------9-----7-----9----------------------------------------------------|
A|---7------9-----7-----9----------------------------------------------------|
E|----------7-----5-----7----------------------------------------------------|
Guitar 2 Octaves
e|---------------------------------------------------------------------------|
B|---------------------------------------------------------------------------|
G|-7/9--9-9-9-9-9-9---7/9--9-9-9-9-9-9--7/9--9-9-9--11-11-11-----------------|
D|-x-x--x-x-x-x-x-x---x-x--x-x-x-x-x-x--x-x--x-x-x---x--x--x-----------------|
A|-5/7--7-7-7-7-7-7---5/7--7-7-7-7-7-7--5/7--7-7-7---9--9--9-----------------|
E|---------------------------------------------------------------------------|
Chorus (song will tell you how many times to play)
e|---------------------------------------------------------------------------|
B|---------------------------------------------------------------------------|
G|------------9-----------------9--------------------------------------------|
D|----7---9---9---9---7---9-----9---9----7---9-------------------------------|
A|----7---9---7---9---7---9-----7---9----7---9-------------------------------|
E|----5---7-------7---5---7---------7----5---7-------------------------------|
After Chorus x2 (song will tell you...)
e|---------------------------------------------------------------------------|
B|---------------------------------------------------------------------------|
G|-----9--------6------------------------------------------------------------|
D|-----9---7----6-------9----------------------------------------------------|
A|-----7---7----4-------9----------------------------------------------------|
E|---------5------------7----------------------------------------------------|
Bridge h - hammer on p - pull off
e|---------------------------------------------------------------------------|
B|---5-5-5-5-5-7-7-7-7-9-10-9-10---12-10-9-7-7h9p7--5-4----------------------|
G|---------------------------------------------------------------------------|
D|---------------------------------------------------------------------------|
A|---------------------------------------------------------------------------|
E|---------------------------------------------------------------------------|

Bridge Cont. Palm Mute
e|---------------------------------------------------------------------------|
B|---------------------------------------------------------------------------|
G|------9---------------9----------------------------------------------------|
D|------9---9---7---9---9---9---7---9----------------------------------------|
A|------7---9---7---9---7---9---7---9----------------------------------------|
E|----------7---5---7-------7---5---7----------------------------------------|
Guitar 2 During Bridge Cont. Repeat tell end of Bridge slowly lifting of P.M.
e|---------------------------------------------------------------------------|
B|---------------------------------------------------------------------------|
G|---------------------------------------------------------------------------|
D|--7-7-9-7--9-9-7-7-7-7-7-7-------------------------------------------------|
A|---------------------------------------------------------------------------|
E|---------------------------------------------------------------------------|
End Riff
e|---------------------------------------------------------------------------|
B|-10p9-9p7-5h7p5------------------------------------------------------------|
G|-----------------9---------------------------------------------------------|
D|---------------------------------------------------------------------------|
A|---------------------------------------------------------------------------|
E|---------------------------------------------------------------------------|




Ваше мнение



Капча