Fenix tx
"Katie W"
Tabbed By:[email protected]
"Intro"[Play 2 times]
e-------------------------------------
B-------------------------------------
G-------------------------------------
D-------------------------------------
A-12-12----------9-9--------4-4--5--7-
E-10-10--10--12--7-7--7--9--2-2--3--5-
"Chorus"[Play 4 times ^That means bend string]
e-------------------------------------
B-------------------------------------
G-------------------------------------
D-------------------------------------
A-12-12-------9-9------4-4--5-7-------
E-10-10--10^--7-7--7^--2-2--3-5-------
"Verse"[play 4 times palm mute]
e-------------------------------------
B-------------------------------------
G-------------------------------------
D-------------------------------------
A-12-12-12-12--9-9-9-9--4-4-4-4--5-7--
E-10-10-10-10--7-7-7-7--2-2-2-2--3-5--




Ваше мнение



Капча