Fenix TX - Jolly Green dumbass.
Tabbed by Brian H. [email protected]

intro
e-----------------------------------------------------
b---------------------------------------------------
g--7--7--7---9---9---9---12--12--12--11--11---9--9-
d---------------------------------------------------
a--5--5--5---7---7---7---10--10--10---9---9---7--7-
e-----------------------------------------------------

e-----------------------------------------------------
b-----------------------------------------------------
g--7--7--7---9---9---9---12--12--12--11--11-- 14--14-
d----------------------------------------------------
a--5--5--5---7---7---7---10--10--10---9---9---12--12-
e-----------------------------------------------------
(if you want the part when he sings,please E-mail me ([email protected])




Ваше мнение



Капча