Band:Fenix TX
Song: Jaw
Album: Riverfenix

Intro:
G:----------------------------------------------
D:-5-4-0-0-0-0--5-4-2-2-2-2--5-4-7-7-7-7--5-4~--
A:----------------------------------------------
E:----------------------------------------------

Verse:
G:----------------------------------------------------
D:----------------------------------------------------
A:--5-5-5-5-5-5-5-5-----------------------------------
E:------------------5-5-5-5-5-5-5-5--3-3-3-3-3-3-3-3--

Riff after verse:
G:--------------
D:--------------
A:-5-4-0-0-0-0-- play this and then play the intro
E:--------------

Chorus:
G:-------------------------------
D:-2--2-2-2--5--5-5-5--4--4-4-4--
A:-------------------------------
E:-------------------------------

Bridge-like thing
G:------------------------
D:------------------------
A:-5~---------------------
E:----5~--3~--5~--7~--3~--

There ya go...

Tab: Matt Nielsen [email protected]




Ваше мнение



Капча