Artist: Fenix TX
Song: G.B.O.H.
Tabbed by: Leonardo Baeza
Riff 1: Guitar 1:
|--------------------------------------------------|
|--------------------------------------------------|
|--9-----------7-----------------------------------|
|--9-(9----)---7-(7----)---7-----------9-----------|
|--7-(7-x14)---5-(5-x14)---7-(7----)---9-(9----)---|
|-----|-PM-|------|-PM-|---5-(5-x14)---7-(7-x14)---|
|-PM-| |-PM-|
Riff 2: Guitar 1:
|-------------------------------------------------------|
|-------------------------------------------------------|
|--9-----------9--7-----------7-------------------------|
|--9-(9----)---9--7-(7----)---7--7-----------7---9~~~---|
|--7-(7-x13)---7--5-(5-x13)---5--7-(7----)---7---9~~~---|
|-----|-PM-|---------|-PM-|------5-(5-x13)---5---7~~~---|
|-PM-|

Guitar 2:
|--------------------------------------------------------|
|--------------------------------------------------------|
|--9----------------------------------------------9~~~---|
|--9-----------6-8------------6-8------------6-8--x------|
|--7-------7-9------------7-9------------7-9------7~~~---|
|--------------------------------------------------------|
Riff 3: Guitar 1:
|----------------------------------------------------------------------|
|----------------------------------------------------------------------|
|-999-999-999-99--777-777-777-77---------------------------------------|
|-999-999-999-99--777-777-777-77--777-777-777-77--999-999-999-99-------|
|-777-777-777-77--555-555-555-55--777-777-777-77--999-999-999-99-------|
|---------------------------------555-555-555-55--777-777-777-77-------|
Guitar 2:
|----------------------------------------------------------------------|
|----------------------------------------------------------------------|
|---------1010-1212-------1010-1212-------1010-1212-------14-13-11-9---|
|----------x-x--x-x--------x-x--x-x--------x-x--x-x--------x--x--x-x---|
|----------8-8-1010--------8-8-1010--------8-8-1010-------12-11--9-7---|
|----------------------------------------------------------------------|
Riff 4: Guitar 1:
|----------------------------------------------------------------------|
|----------------------------------------------------------------------|
|-999-999-999-99--777-777-777-77---------------------------------------|
|-999-999-999-99--777-777-777-77--777-777-777-77--999-999-999-99-------|
|-777-777-777-77--555-555-555-55--777-777-777-77--999-999-999-99-------|
|---------------------------------555-555-555-55--777-777-777-77-------|

Guitar 2:
|----------------------------------------------------------------------|
|----------------------------------------------------------------------|
|---------1010-1212--14-14-13-11-9--------1010-1212-------14-13-11-9---|
|----------x-x--x-x---x--x--x--x-x---------x-x--x-x--------x--x--x-x---|
|----------8-8-1010--12-12-11--9-7---------8-8-1010-------12-11--9-7---|
|----------------------------------------------------------------------|
Riff 5: Solo:
|-------------------------------------------------------|
|-------------------------------------------------------|
|-------------------------------------------------------|
|-12-14-14--12-14-14--12-14-14--12-14-14--12-14-12-14---|
|-------------------------------------------------------|
|-------------------------------------------------------|
|-------------------------------------------------------|
|-------------------------------------------------------|
|-------------------------------------------------------|
|-14-16-16--14-16-16--14-16-16--14-16-16--14-16-14-16---|
|-------------------------------------------------------|
|-------------------------------------------------------|
|-------------------------------------------------------------------------------|
|-------------------------------------------------------------------------------|
|----------------------------------------------------------16-14----14-13-------|
|-16-18-18--16-18-18--16-18-18--16-18-18--16-18-16-18---16-------16-------16-14-|
|-------------------------------------------------------------------------------|
|-------------------------------------------------------------------------------|
|------------------------------------------------|
|------------------------------------------------|
|-------13-14--13-14-16--14-13-14-13--13h14p13---|
|-14-16------------------------------------------|
|------------------------------------------------|
|------------------------------------------------|
|------------------------------------------------|
|------------------------------------------------|
|-------13-14--13-14-16--14-13-14-13--13h14p13---|
|-14-16------------------------------------------|
|------------------------------------------------|
|------------------------------------------------|
|------------------------------------------------|
|------------------------------------------------|
|-------13-14--13-14-16--14-13-14-13--13h14p13---|
|-14-16------------------------------------------|
|------------------------------------------------|
|------------------------------------------------|
|------------------------------------------------------------|
|------------------------------------------------------------|
|-14-12-14-12------------------------------------------------|
|-------------16-14-16-14--13-16-14-13--13-16-14----13-14^---|
|------------------------------------------------16----------|
|------------------------------------------------------------|
Riff 6: End:
|-----------|
|-----------|
|---9~~/7---|
|---9~~/7---|
|---7~~/5---|
|-----------|
Order:
Riff 1 x1
Riff 2 x1
Riff 3 x1
Riff 4 x1
Riff 1 x1
Riff 2 x1
Riff 3 x2 Chorus
Riff 1 x1
Riff 2 x1
Riff 3 x2 Chorus
Riff 3 x1
Riff 1 x1
Riff 5 x1 Solo
Riff 3 x2 Chorus
Riff 3 x1
Riff 4 x1
Riff 6 x1




Ваше мнение



Капча