Artist: Fenix TX
Title: Ben
Album: S/T
Transcribed by: Collin Middleton
Email: [email protected]
Riff A:
e-----------------
B-----------------
G-----------------
D-2-22-22-2-22-22-
A-2-22-22-2-22-22-
E-0-00-00-0-00-00-

Verse Riff
|------------------------------------------------------------
|------------------------------------------------------------
|------5555------7777----------------------------------------
|-2222-5555-5555-7777----------------------------------------
|-2222-3333-5555-5555----------------------------------------
|-0000------3333---------------------------------------------
Chorus:
------------------------------------------------------------------------------
------------------------------------------------------------------------------
-5----------------------------------------------------------------------------
-5----------------5----7------------------------------------------------------
-3----------------5----7------------------------------------------------------
------------------3----5------------------------------------------------------
How could I have ever saved you.......
Interlude Riff A:
------------------------------------------------------------------------------
------------------------------------------------------------------------------
-9999--9999--99---------------------------------------------------------------
-xxxx--xxxx--xx---------------------------------------------------------------
-7777--7777--77---------------------------------------------------------------
------------------------------------------------------------------------------

Interlude Riff B:
------------------------------------------------------------------------------
------------------------------------------------------------------------------
-------------------5------------------------------------------7---------------
-2-----------------5---------------------5--------------------7---------------
-2-----------------3---------------------5--------------------5---------------
-0---------------------------------------3------------------------------------
Take a different road take a chance to know there's so much more that
Last Chorus Riff A:
------------------------------------------------------------------------------
------------------------------------------------------------------------------
-5555555555555----------------------------------------------------------------
-5555555555555----5555--7777--------------------------------------------------
-3333333333333----5555--7777--------------------------------------------------
------------------3333--5555--------------------------------------------------
How could I have ever saved you........
Last Chorus Riff B:
------------------------------------------------------------------------------
------------------------------------------------------------------------------
-5555555555555----------------------------------------------------------------
-5555555555555-------5-------------7------------------------------------------
-3333333333333-------5-------------7------------------------------------------
---------------------3-------------5------------------------------------------
You never promised that you would always be there

Riff Order:
Riff A
Verse Riff x 4
Riff A
Verse Riff x 4
Riff A
Chorus x 4
Verse Riff x 6
Riff A
Chorus x 4
Verse Riff x 4
Interlude Riff A x 6
Interlude Riff B x 2
Last Chorus Riff A x 3
Last Chorus Riff B
Verse Riff x 4
Riff A




Ваше мнение



Капча