t. See http://www.olga.net/faq/ for more information. #
From: [email protected]
Date: Wed, 19 Apr 2000 19:56:42 EDT
Subject: f/fenix_tx/all_my_fault.crd
I love this band, they are kick ass
Verse
Pm
D G A
e|--------------------------------------------------------------------|
B|--------------------------------------------------------------------|
G|----7---------------------------------------------------------------|
D|----7--------5---------7--------------------------------------------|
A|----5--------5---------7--------------------------------------------|
E|-------------3---------5--------------------------------------------|
Chorus
B G D A
e|--------------------------------------------------------------------|
B|--------------------------------------------------------------------|
G|-----------------------7--------------------------------------------|
D|----9--------5---------7------7-------------------------------------|
A|----9--------5---------5------7-------------------------------------|
E|----7--------3----------------5-------------------------------------|
After Chorus
D C# G D C# A D C# B G A
e|--------------------------------------------------------------------|
B|--------------------------------------------------------------------|
G|----7---6-----------7---6---------7----6---------------------------|
D|----7---6-----5-----7---6----7----7----6----9---5----7-----------|
A|----5---4-----5-----5---4----7----5----4----9---5----7-----------|
E|--------------3--------------5--------------7---3----5--------------|
Ending
(Ive heard this on the live version and on the mulletcore version.
Play it at the end while someone else plays the after chorus thing)
e|---------------------------------------------------------------------|
B|---------------------------------------------------------------------|
G|-------------------------------------------------------------------7-|
D|-------------------------------------------------------------------7-|
A|-----5-7-9-7-5--5-7-9-7-5--5-7-9-7-5----9-10-12-10-9-9h10p9h10p9-7-5-|
E|---------------------------------------------------------------------|


Ваше мнение



Капча