standard tuning

e|-------------------|
b|-------------------|
g|-------------------| Intro 4x
d|-9-9-9/7-7-7-7-7---|
a|-9-9-9/7-7-7-7-7---|
e|-7-7-7/5-5-5-5-5---|

e|--------------------------------------------------------------|
b|--------------------------------------------------------------|
g|-7-7-7-----------------------7-7-7----------------------------| verse 2x
d|-7-7-7-7-7-7-7-9-9-9-5-5-5---7-7-7-7-7-7-7-9-9-9-10-10-10-10--|
a|-5-5-5-7-7-7-7-9-9-9-5-5-5---5-5-5-7-7-7-7-9-9-9-10-10-10-10--|
e|-------5-5-5-5-7-7-7-3-3-3---------5-5-5-5-7-7-7-8--8--8--8---|

e|----------------------------------------------------------------|
b|----------------------------------------------------------------|
g|-11-11-11-11-11-11-7-7-7-7-7-7-7-9-9-9-9-9-9-12-12-12-14-14-14--| pre-
d|-11-11-11-11-11-11-7-7-7-7-7-7-7-9-9-9-9-9-9-12-12-12-14-14-14--| chorus
a|-9--9--9--9--9--9--5-5-5-5-5-5-5-7-7-7-7-7-7-10-10-10-12-12-12--| 1x
e|----------------------------------------------------------------|

e|------------------------------------------------------------------|
b|------------------------------------------------------------------|
g|-7-7-7---------9-9-9----------7-7-7---------12-12-12-14-14-14-14--| chorus
d|-7-7-7-5-5-5-5-9-9-9-7-7-7-7--7-7-7-9-9-9-9-12-12-12-14-14-14-14--| 2x
a|-5-5-5-5-5-5-5-7-7-7-7-7-7-7--5-5-5-9-9-9-9-10-10-10-12-12-12-12--|
e|-------3-3-3-3-------5-5-5-5--------7-7-7-7-----------------------|

e|-----------------------------|
b|-----------------------------|
g|-7------7------4------7------| Bridge
d|-7-(8x)-7-(8x)-4-(8x)-7-(8x)-| 2x
a|-5------4------2------5------|
e|-----------------------------|

Intro
Verse
Pre-Chorus
Chorus
Intro
Verse
Pre-Chorus
Chorus
Intro
Bridge
Verse
Pre-Chorus
Chorus 2x
Intro




Ваше мнение



Капча