Feeder - Tomorrow Shine
B-side of New single Yesterday went too soon
Tabbed by Lucy ([email protected])
Not sure how correct this is- sorry
Intro and verses
E-----------------------------------|--------------------]
B------3--3----------3-----1---1----|--------------------]
G----0--0-----0----0-----0---0---0--|----0-3-3----0-3-3--]
D-----------------------------------|--1--------1--------]
A--3--3-----3----3-----3------------|--------------------]
E-----------------------------------|--------------------]
Chorus
Either strum chords G5 A5 and C5
or
G5 A5 C5
E-------------|-------------|--------------------------------------]
B-------------|-------------|--------------------------------------]
G-------------|-------------|--------------------------------------]
D----5----5---|----7----7---|------10-----10----------10-----10----]
A--5----5----5|--7----7----7|---10-----10-----10---10-----10-----10]
E3----3----3--|5----5----5--|-8------8------8----8------8------8---]
Solo
repeat
G------------------------------------------------]
D--10--10--10h11--9--9--9h10--8--8--8h9--7--7----]
A------------------------------------------------]




Ваше мнение



Капча