I'm not totally sure how accurate this tab is. The lead part is definately right
(not sure about amounts on each note, but the notes) so give it a go. Was a
request on the Tab Talk forum.

Standard Tuning with Capo on fret 4 (for rhythm parts)
Lead just standard tuning (no capo)

Rhythm Verse
|-0----0-
|-2----0-
|-1----1-
|-2----2-
|--------
|--------

lead
|-------------------------------------11-11-11-11-11-11-11-------------
|-11-11-11-11-11-13-11-10-10-10-10-10----------------------11-11-11-11-
|----------------------------------------------------------------------
|----------------------------------------------------------------------
|----------------------------------------------------------------------
|----------------------------------------------------------------------

|------8-
|----9---
|-10-----
|--------
|--------
|-------- slightly changes throughout verse and played at break

Chorus
|-0----0----0----0----0----0----0----0-
|-2----0----2----2----0----2----0----2-
|-1----1----1----2----1----2----1----1-
|-2----2----2----2----2----2----2----2-
|--------------------------------------
|--------------------------------------

You can work out the order but it's quite simple. The chords are probably more
complicated than I've written down, but it's not overly bad, so play it.




Ваше мнение



Капча