TITLE: Tell All Your Friends
ALBUM: EchoPark
GROUP: Feeder

Bass line: (For reference)
G|----------------------------|
D|----------------------------|
A|--------3-3--0-0-0-1-0------|
E|--1-1-1----------------1-0--|

Gtr 1:
E|--------------|
B|--------------|
G|--9-let ring--|
D|--------------|
A|--------------|
E|--------------|

Gtr 2:
E|---------------|
B|---------------|
G|------0-----0--| Etc
D|---------------|
A|----3-----3----|
E|--1-----1------|

Link to chorus: (So I see the hands and the pale blue sky)
Bb F C G
E|------------------------------------------------------------------------|
B|------------------------------------------------------------------------|
G|------0-----0----------0-----0----------0-----0----------0------0-------|
D|----3-----3-----3---------------------5-----5-----5---------------------|
A|--1-----1-----1------3-----3-----3--3-----3-----3------5------5------5--|
E|-------------------1-----1-----1---------------------3------3------3----|

Bb F C
E|----------------------------------------------------------------------|
B|----------------------------------------------------------------------|
G|------0-----0----------0-----0----------0-----0----------0-----0------|
D|----3-----3-----3---------------------5-----5-----5----5-----5-----5--|
A|--1-----1-----1------3-----3-----3--3-----3-----3----3-----3-----3----|
E|-------------------1-----1-----1--------------------------------------|

Riff:
F5 A5 F (higher octave)
E|-----------------|
B|-----------------|
G|-----------------|
D|--3---7----------|
A|--3---7---8-8-8--|
E|--1---5----------|

Chorus:
Bb5 F5 C5/G G5
E|-----------------|
B|-----------------|
G|--3-------5------|
D|--3---3---5---5--|
A|--1---3---3---5--|
E|------1---3---3--|

Bb5
But don't come around
F5
Pulling me down
C5/G G
Tellin the world I let you down
Bb5 F5 C5/G
Tell all your friends I wanna dream with you
Bb5 F5
So tell all your friends, your neighbours too
C5/G G Bb5 F5
CNN, BBC World News, so tell all your friends
C5
I wanna dream with you




Ваше мнение



Капча