Feeder - Sweet 16.
Tabbed by Mark Hobson ([email protected]).

Tuning - Drop D (DADGBe)

Intro
Repeat x4
e|----------------------------------|
B|----------------------------------|
G|----------------3-----3-----3-----|
D|--5-5-5-5-5-5-5-5-5-5-5-5-5-5-5-5-|
A|--3-3-3-3-3-3-3-3-3-3-3-3-3-3-3-3-|
D|----------------------------------|
Verse
e|--------------------------------|
B|--------------------------------|
G|--7---7---5-----7---7-----5---5-|
D|--7---7---5-----7---7-----5---5-|
A|--5---5---3-----5---5-----3---3-|
D|--------------------------------|
Chorus
(let these ring)
e|-------------------------------|
B|-------------------------------|
G|---5-------9-------10-------14-|
D|---5-------9-------10-------14-|
A|---3-------7--------8-------12-|
D|-------------------------------|
Bridge
Repeat x4 (Solo plays over last 2)
e|-----------------------------------------------------------------|
B|-----------------------------------------------------------------|
G|-----------------------------------------------------------------|
D|-2---2-0-2---5-----5-5---8-----2---2-0-2---5-----5-5---8/7-------|
A|-2---2-0-2---5-----5-5---8-----2---2-0-2---5-----5-5---8/7-------|
D|-2---2-0-2---5-----5-5---8-----2---2-0-2---5-----5-5---8/7-------|

Solo (Repeat x2)
e|-----------------------------------------------------------------|
B|-----------------------------------------------10h11p10----------|
G|--9---9-9-9-7---------------------9---9-9-9-7--------------------|
D|--------------8----7---------------------------------------------|
A|-----------------------------------------------------------------|
D|-----------------------------------------------------------------|
Outro
(let ring until fade)
e|----|
B|----|
G|----|
D|-0--|
A|-0--|
D|-0--|




Ваше мнение



Капча