played though at the start of every D chord:
E:---5--
B:-3----
G:------
D:------
A:------
E:------
Verse and Chorus:
D Am C G
E:-2--0--0--3--
B:-3--1--1--3--
G:-2--2--0--0--
D:-0--2--2--0--
A:-0--0--3--2--
E:----------3--
Also played:
E:------------------------------------
B:------------------------------------
G:-----7-------5-------5-------5------
D:---7---7---7---7---5---5---5---5----
A:-5---------------3------------------
E:---------5---------------3----------
Part after second chorus:
C G D Am
E:-0--3--2--0---
B:-1--3--3--1---
G:-0--0--2--2---
D:-2--0--0--2---
A:-3--2--0--0---
E:----3---------
E:-----------------------------------
B:-----------------------------------
G:-----5-------5-------7-------5-----
D:---5---5---5---5---7---7---7---7---
A:-3---------------5-----------------
E:---------3---------------5---------
back to chorus, then end
tabbed by jeff n




Ваше мнение



Капча