-----------------------
PIECE BY PIECE - FEEDER
-----------------------
Capo 3
Expect the lyrics very soon...
Am C G Dm
e|-----------------------------1p0----
B|-----1---------------0----------3p1-
G|-------2-----0---------0---2--------
D|---2-------2---2---0-----0----------
A|-0-------3--------------------------
E|-----------------3------------------
Verse: As intro
Bridge:
F C/G G
e|-----------------------------------
B|-------1---------------1-------0---
G|-----------2-------------0-------0-
D|-----3-------3------2--------0-----
A|---3-----------3-------------------
E|-1----------------3--------3-------
Chorus: Same as intro/verse, with strumming





Ваше мнение



Капча