Intro /verse
E-------------------------
B-------------------------
G---0---0------0---0------
D--4---4---4--5---5---5--- x 10(for the first two times)
A-2---2---2--3---3---3----
E-------------------------
B5 C5
Chorus
E-------------------------------------------------------------------------
B-------------------------------------------------------------------------
G-------------------------------------------------------------------------
D-5-5-5-5-5-5-5-5-7-7-7-7-7-7-7-7-9-9-9-9-9-9-9-9-10-10-10-10-10-10-10-10-
A-5-5-5-5-5-5-5-5-7-7-7-7-7-7-7-7-9-9-9-9-9-9-9-9-10-10-10-10-10-10-10-10-
E-3-3-3-3-3-3-3-3-5-5-5-5-5-5-5-5-7-7-7-7-7-7-7-7-8--8--8--8--8--8--8--8--
Bridge
section 1 section 2
D-5- G-6
A-5- D-6
E-5- x 23 Palm muting------ > A-4 x 9
Im not sure of the whole bridge Section 1 then section 2, then section 3
Section 3
5
5
3 x 30 palm muted




Ваше мнение



Капча