-------------------------------------------------------------------------------
Love Pollution - Feeder
-------------------------------------------------------------------------------
Tabbed by: Sean Bishop
Email: [email protected]
I tabbed this song from the acoustic version i heard when they played
at exeter and it was amazing! Hope this tab is accurate enough!
Tuning: Standard
Capo 3rd Fret

*Relative To Capo*
Verse/Intro: I attempted the rhythm but if the spaces don't help
listen to the song itself.
e|---------------------------------------------------------------------------|
B|----0----0--0-0------1--1--1--1----1-1-1-1---------------------------------|
G|----0----0--0-0------2--2--2--2----2-2-2-0----0-0--------------------------|
D|----0----0--0-0-2----2--2--2--2----2-2-2-2----0-0--------------------------|
A|----2----2--2-2-0----0--0--0--0----0-0-0-3----2-0--------------------------|
E|----3----3--3-3------------------------------------------------------------|
e|---------------------------------------------------------------------------|
B|----0----0--0-0------1--1--1--1----1-1-0-----------------------------------|
G|----0----0--0-0------2--2--2--2----2-2-0-----------------------------------|
D|----0----0--0-0-2----2--2--2--2----2-2-0-----------------------------------|
A|----2----2--2-2-0----0--0--0--0----0-0-0-----------------------------------|
E|----3----3--3-3------------------------------------------------------------|
Bit Before Chorus
e|----0----0--0-0------------------------------------------------------------|
B|----0----0--0-0-1----1--1-1-1----1--1-1-1----1--1-1------------------------|
G|----0----0--0-0-0----0--0-0-2----2--2-2-0----0--0-0------------------------|
D|----2----2--2-2-2----2--2-2-2----2--2-2-2----2--2-2------------------------|
A|----2----2--2-2-3----3--3-3-0----0--0-0-3----3--3-3------------------------|
E|----0----0--0-0------------------------------------------------------------|
e|----0----0--0-0------------------------------------------------------------|
B|----0----0--0-0-1----1--1-1-1----1--1-1--1-1---1-1-0-----------------------|
G|----0----0--0-0-0----0--0-0-2----2--2-2--2-2---2-2-0-----------------------|
D|----2----2--2-2-2----2--2-2-2----2--2-2--2-2---2-2-0-----------------------|
A|----2----2--2-2-3----3--3-3-0----0--0-0--0-0---0-0-0-----------------------|
E|----0----0--0-0------------------------------------------------------------|

Chorus
e|----------------2----2--2-2------------------------------------------------|
B|----0----0--0-0-3----3--3-3-1----1--1-1-1----1--1-1------------------------|
G|----0----0--0-0-2----2--2-2-2----2--2-2-0----0--0-0------------------------|
D|----0----0--0-0-0----0--0-0-2----2--2-2-2----2--2-2------------------------|
A|----2----2--2-2-------------0----0--0-0-3----3--3-3------------------------|
E|----3----3--3-3------------------------------------------------------------|
(x3)
e|----------------2----2--2-2------------------------------------------------|
B|----0----0--0-0-3----3--3-3-1----1--1-1--1-1---1-1 0-----------------------|
G|----0----0--0-0-2----2--2-2-2----2--2-2--2-2---2-2-0-----------------------|
D|----0----0--0-0-0----0--0-0-2----2--2-2--2-2---2-2-0-----------------------|
A|----2----2--2-2-------------0----0--0-0--0-0---0-0-0-----------------------|
E|----3----3--3-3------------------------------------------------------------|
Structure:
Verse/Intro x3
Bit Before Chorus x1
Chorus x1
Verse/Intro x2
Bit Before Chorus x1
Chorus x1 (Play 2nd part twice)
Verse/Intro x3
Chorus x1
| / slide up
| slide down
| h hammer-on
| p pull-off
| ~ vibrato
| + harmonic
| x Mute note
============================================================================




Ваше мнение



Капча