-------------------------------------------------------------------------------
JUST THE WAY I'M FEELING - FEEDER
-------------------------------------------------------------------------------
Album: Comfort In Sound
Tabbed by: Jim_Eat_World (James)
Email: [email protected]
Tuning: Standard (Everything's here, just listen to the song for rhythm:)

Guitar 1 (Intro + Verse Chords)
e|--------------------------------------------------------------------------|
B|------3---3---3-----------------------------------------------------------|
G|------2---2---2-----------------------------------------------------------|
D|------0---0---0-----------------------------------------------------------|
A|--2-2-2---0---x-----------------------------------------------------------|
E|--------------3-----------------------------------------------------------|
Guitar 2 (0.16)
e|------5----5----5-----5---------5----Repeat-------------------------------|
B|----3----3----------3-----3---3-------------------------------------------|
G|--4----4----4-----2-----2---0---------------------------------------------|
D|--------------------------------------------------------------------------|
A|--------------------------------------------------------------------------|
E|--------------------------------------------------------------------------|
Guitar 1 (Pre-Chorus1 Chords/0.54)
e|--------------------------------------------------------------------------|
B|--3--3--3--3--------------------------------------------------------------|
G|--2--2--2--2--------------------------------------------------------------|
D|--0--0--0--0--------------------------------------------------------------|
A|--x--x--2--0--------------------------------------------------------------|
E|--2--3--------------------------------------------------------------------|
Guitar 2 (Pre-Chorus)
e|----9----9----9-10---Repeat-----------------------------------------------|
B|-10---10---10-------------------------------------------------------------|
G|--------------------------------------------------------------------------|
D|--------------------------------------------------------------------------|
A|--------------------------------------------------------------------------|
E|--------------------------------------------------------------------------|

Guitar 1 (Chorus Chords/1.10) played 4 times.
e|-(0)----------------------------------------------------------------------|
B|--3--3--3--3--------------------------------------------------------------|
G|--2--2--2--2--------------------------------------------------------------|
D|--2--x--0--0--------------------------------------------------------------|
A|--0--2--x--x--------------------------------------------------------------|
E|--------3--2--------------------------------------------------------------|
Guitar 2
e|-(10)-----10----10------10--12--Repeat-|------9----10---------------------|
B|-------10----10-----10-----------------|---10---10------------------------|
G|--------------------------------------------------------------------------|
D|--------------------------------------------------------------------------|
A|--------------------------------------------------------------------------|
E|--------------------------------------------------------------------------|
Guitar 3
e|--------------------------------------------------------------------------|
B|--------------------------------------------------------------------------|
G|--------------------------------------------------------------------------|
D|---------Repeat 2 times then finish on the last string--------------------|
A|--7-/-9--5--5----7-/-9--5-/-12------------------------------------------|
E|--5-/-7--3--2----5-/-7--3-/-10--------------(10)7-(let ring)-----------|

Guitar 1 + 2 (Verse Chords)
Guitar 1 + 2 Pre-Chorus2 Chords/2.04)
CHORUS/2.15
Guitar 1 (Bridge/2.42) Play only 2 times.
e|--------------------------------------------------------------------------|
B|--3-3--3-3--3--3--3-------------------------------------------------------|
G|--2-2--2-2--2--2--2-------------------------------------------------------|
D|--x-0--0-0--2--x--0-------------------------------------------------------|
A|--2-0--x-0--0--2--x-------------------------------------------------------|
E|-------3----------3-------------------------------------------------------|
Guitar 1 + 2 (Intro + Verse Chords)
CHORUS/3.32. Play Guitar 3 louder on this last chorus.
OUTRO Chorus Guitar 1 and Guitar 2 ONLY.
--------
Done! hope you liked it.
| / slide up
| slide down
| h hammer-on
| p pull-off
| ~ vibrato
| + harmonic
| x Mute note
===============================================================================
Love in, love out,
Find the feeling
Scream in, scream out,
Time for healing
You feel the moment's gone too soon,
You're watching clouds come over you.
Torn in two,
You close your eyes for some place new,
Torn in two
And I feel it's going down,
Ten feet below the ground,
I'm waiting for your healing hand,
One touch could bring me round
I feel we're going down,
Ten feet below the ground,
It's just the way I'm feeling.
Glow in, glow out,
Lost the feeling
Bruise in, bruise out,
Nurse the bleeding
Torn in two,
Each time we bruise
And I feel it's going down,
Ten feet below the ground,
I'm waiting for your healing hand,
One touch could bring me round
I feel we're going down,
Ten feet below the ground,
It's just the way I'm feeling.
Yeah yeah, It's just the way I'm feeling.
Two different views,
As words confuse and break,
I can't get out,
There's no way out of here,
I can't get clear.
Love in, love out,
Find the feeling
And I feel it's going down,
Ten feet below the ground,
I'm waiting for your healing hand,
One touch could bring me round
I feel we're going down,
Ten feet below the ground,
It's just the way I'm feeling.
Yeah yeah, It's just the way I'm feeling.
Yeah yeah, It's just the way I'm feeling.
Yeah yeah, It's just the way I'm feeling.
Yeah yeah, It's just the way I'm feeling.




Ваше мнение



Капча