FEEDER - JUST A DAY
^=bend up
INTRO/CHORUS RIFF
A5 E5
E--------------------------------------------------------
B--------------------------------------------------------
G--11-11--9-9--11-11--9-----11-11--9-9--11^13--11--9-----
D------------------------9---------------------------11--
A--------------------------------------------------------
E-------------------------------------------------------- x3
VERSE 1
A5
Wakin' up at 12 in my clothes again
E5 A5
Feel my head explode from a night of gin
E5
Another night out late
A5
I don't want a drink, don't wanna be a clown
E5 A5
Gotta get my feet back on the ground
E5
Before it pulls me in
BRIDGE
Lead guitar plays this throughout
E-------------------------------------
B-------------------------------------
G--8--9-9-9-9-9-9--8--9-9-9-9-9-9--8--
D-------------------------------------
C#m A5 E5
How come it ended up like this?
C#m G#5 A5
And who's gonna catch me when I'm coming down to hit the ground?
CHORUS
E5 B5 A5
All by myself
C#m E5 B5 A5
'Cos I don't wanna drag you down, hold you down - 'cos you're a friend
E5 B5 A5
I'll blame myself
C#m F#5 A5
Guess you think it's funny now, funny now.
A5 E5
E--------------------------------------------------------
B--------------------------------------------------------
G--11-11--9-9--11-11--9-----11-11--9-9--11^13--11--9-----
D------------------------9---------------------------11--
A--------------------------------------------------------
E--------------------------------------------------------
A5
E--------------------------------------------
B--------------------------------------------
G--11-11--9-9--11-11--9-----11-11--9-9--13---
D------------------------9-------------------
A--------------------------------------------
E--------------------------------------------
VERSE 2
On the underground where the freaks are proud
Looking at the world through silver clouds
But then it all came down
I gotta rise above the emotional fuck
Gotta cut these ropes from 'round my hands
Pull myself around
BRIDGE(Chords as before)
How come it ended up like this?
And who's gonna be there when I've lost control, I head into crashland.
REPEAT CHORUS
MIDDLE(with harmonics)
B5 C#5 G#5 A5 C#5 B5 G#5 A5
B-------------------------------------------------------------
G--9-9-9-8-8-8-6-6-6-4-4-4-4---9-9-9-8-8-8-9-9-9-11-11-11-11--
D-------------------------------------------------------------
B5 C#5 G#5 A5 C#5 B5 G#5 A5
B--------------------------------------------------------------------
G--9-9-9-8-8-8-6-6-6-4-4-4-4---9-9-9-8-8-8-9-9-9-11-11-11-13-13-13---
D--------------------------------------------------------------------
B5 C#5 G#5 A5 C#5 B5 G#5 A5
B-------------------------------------------------------------
G--9-9-9-8-8-8-6-6-6-4-4-4-4---9-9-9-8-8-8-9-9-9-11-11-11-11--
D-------------------------------------------------------------
CHORUS
E-------------------------------------------------------
B--9-9-9-9-9-9-9-7-7-7-7-7-7-7-10-10-10-10-10-10-10-----
G--9-9-9-9-9-9-9-9-9-9-9-9-9-9--9--9--9--9--9--9--9-----
D-------------------------------------------------------
All by my self
E----------------------------------------------------------
B--9-9-9-9-9-9-9-7-7-7-7-7-7-7-7-7-7-7-7-7-7-5-5-5-5-5-5---
G--9-9-9-9-9-9-9-9-9-9-9-9-9-9-9-9-9-9-9-9-9-6-6-6-6-6-6---
D----------------------------------------------------------
Cos I don't wanna drag you down hold, you do--wn - 'cos you're a friend
E-------------------------------------------------------
B--9-9-9-9-9-9-9-7-7-7-7-7-7-7-10-10-10-10-10-10-10-----
G--9-9-9-9-9-9-9-9-9-9-9-9-9-9--9--9--9--9--9--9--9-----
D-------------------------------------------------------
I'll blame my self
E----------------------------------------------------------
B--9-9-9-9-9-9-9-7-7-7-7-7-7-7-7-7-7-7-7-7-7-5-5-5-5-5-5---
G--9-9-9-9-9-9-9-9-9-9-9-9-9-9-9-9-9-9-9-9-9-6-6-6-6-6-6---
D----------------------------------------------------------
Guess you think it's funny now, funny now, it's such a shame
FINAL CHORUS(2nd Guitar continues to play part above)
E5 B5 A5
All by myself
C#m E5 B5 A5
'Cos I don't wanna drag you down, hold you down - 'cos you're a friend
E5 B5 A5
I'll blame myself
C#m F#5 A5
Guess you think it's funny now, funny now, it's such a shame
3rd Guitar plays this 2nd time
B----------------------------------------------------
G-11-11--9-9--11-11--9-9--11-11--9-9--11^13-11--9-9--
D----------------------------------------------------
A----------------------------------------------------
E5 B5 A5
All by myself
C#m E5 B5 A5
'Cos I don't wanna drag you down, hold you down - 'cos you're a friend
E5 B5 A5
I'll blame myself
C#m F#5 A5
Guess you think it's funny now, funny now
OUTRO
Rhythm and lead guitar both play, while Grant sings the main riff.
B----------------------------------------------------
G-11-11--9-9--11-11--9-9--11-11--9-9--11^13-11--9-9--
D----------------------------------------------------
A---------------------------------------------------- x2
Doo doo doo doo doo doo doo doo doo doo doo....etc
End on A5


Ваше мнение



Капча