Hey this is a cool solo but a lot of the tabs i've seen are incorrect,
so heres the correct one:

Standard Tuning
/=Bend

E----------------------------------------------------------------
B----------------------------------------------------------------
G--11-11-9-9-11-11-9---11-11-9-9-11/13-11-9----------------------
D--------------------9----------------------11-------------------
A----------------------------------------------------------------
E----------------------------------------------------------------

Repeat Once or twice and end on:

E----------------------------------------------------------------
B----------------------------------------------------------------
G---13-11-9------------------------------------------------------
D-----------9----------------------------------------------------
A----------------------------------------------------------------
E----------------------------------------------------------------

Enjoy!




Ваше мнение



Капча