This one sounds better I think

|------------------------------------------
|------------------------------------------
|-11-11-9-9-11-11-9---11-11-9-9-11-11p9----
|-------------------9-------------------11-
|------------------------------------------
|------------------------------------------

This part is shown in the video, but haven't worked out exactly how many times each chord is played and dunno if it's correct, sounded ok though

|---------------------------------
|---------------------------------
|---------------------------------
|-7-7-7-7-7-7-7-7-6-6-6-6-6-6-6-6-
|-7-7-7-7-7-7-7-7-6-6-6-6-6-6-6-6-
|-5-5-5-5-5-5-5-5-4-4-4-4-4-4-4-4-




Ваше мнение



Капча