t. See http://www.olga.net/faq/ for more information. #

From: "Sam Jenkins"
Subject: f/feeder/insomnia.tab
Date: Wed, 11 Aug 1999 09:47:28 PDT

Band: Feeder
Track Title: Insomnia
Album: Yesterday Went Too Soon

Tabbed by Sam Jenkins ([email protected])

6-String guitar in Drop-D.

INTRO - Listen to the Song for the strumming Pattern

E--------------->
B--------------->
G---------------> X2
D-3----O----8--->
A-3----O----8--->
D-3----O----8--->

VERSE - Guitar 1 is the same as the intro, Guitar 2 as below.

E-------------------------------------------------->
B--10----10----10----10----10----10----11----11---->
G-----10----10----10----10----10----10----10----10->
D-------------------------------------------------->
A-------------------------------------------------->
D-------------------------------------------------->

BRIDGE

GUITAR 1
E----------------->
B----------------->
G-----------------> X4
D-7-7-10-10-10-10->
A-7-7-8--8--8--8-->
D-7-7-8--8--8--8-->

GUITAR 2 - Comes in after Guitar 1 part
E-------------------|------------------->
B-------------------|------------------->
G-12-12-12-12-14-10-|-12-12-12-12-10-10->
D-------------------|------------------->
A-10-10-10-10-12-8--|-10-10-10-10-8--8-->
D-------------------|------------------->

CHORUS

E---------------------|----------------------->
B---------------------|----------------------->
G---------------------|-----------------10-10->
D-10-10-12-12-8-8-3-3-|-10-10-12-12-8-8-10-10->
A-10-10-12-12-8-8-3-3-|-10-10-12-12-8-8-8--8-->
D-10-10-12-12-8-8-3-3-|-10-10-12-12-8-8-X--X-->

MIDDLE 8 - Same as Verse but at half speed.

Verse 1
Bridge
CHORUS
Verse 2
CHORUS X2
Middle 8
CHORUS X3




Ваше мнение



Капча