Band: Feeder
Track Title: Insomnia
Album: Yesterday Went Too Soon
6-String guitar in Standart Tuning.
INTRO - Listen to the Song for the strumming Pattern
E---------------
B---------------
G--------------- X2
D---------------
A-5----2----10--
E-3----O----8---
VERSE - Guitar 1 is the same as the intro, Guitar 2 as below.
E--------------------------------------------------
B--10----10----10----10----10----10----11----11----
G-----10----10----10----10----10----10----10----10-
D--------------------------------------------------
A--------------------------------------------------
E--------------------------------------------------
BRIDGE
GUITAR 1
E-----------------
B-----------------
G----------------- X4
D-----------------
A-9-9-9-10-10-10--
E-7-7-8--8--8--8--
GUITAR 2 - Comes in after Guitar 1 part
E-------------------|-------------------
B-------------------|-------------------
G-12-12-12-12-14-10-|-12-12-12-12-10-10-
D-------------------|-------------------
A-10-10-10-10-12-8--|-10-10-10-10-8--8--
D-------------------|-------------------
CHORUS
E----------------------------|------------------------------
B----------------------------|------------------------------
G----------------------------|------------------------------
D----------------------------|------------------------10--10
A-12--12--14--14-10-10--5--5-|--12--12--14--14-10-10--8--8--
D-10--10--12--12--8--8--3--3-|--10--10--12--12--8--8--X--X--
MIDDLE 8 - Same as Verse but at half speed.
Verse 1
Bridge
CHORUS
Verse 2
CHORUS X2
Middle 8
CHORUS X3
dunno if it works properly, sounds right when i play it but see for yourself =)




Ваше мнение



Капча