Artist: Feeder
Song: Helium (from Comfort In Sound album)
Tab by: Seth ([email protected])
Notes: Standard tuning: EADGBE

Intro -Listen to CD for rhythm-

riff1 x2

E|--------------------------------------------------------|
B|--------------------------------------------------------|
G|--------------------------------------------------------|
D|--------------6-6-6-6----9-9-9-9------------------------|
A|--6666666-----6-6-6-6----9-9-9-9------------------------|
E|--------------4-4-4-4----7-7-7-7------------------------|

riff2 x2

E|----------------------------------------------------------|
B|----------------------------------------------------------|
G|--8888888-------------------------------------------------|
D|---------------6-6-6-6----9-9-9-9-------------------------|
A|---------------6-6-6-6----9-9-9-9-------------------------|
E|---------------4-4-4-4----7-7-7-7-------------------------|

Verse:

chords:

D# Ab5 B5 C# E5
E|-------------------------------------|---------------------|
B|-------------------------------------|---------------------|
G|--8888888----------------------------|--6-6-6-6--9-9-9-9---|
D|---------------6-6-6-6----9-9-9-9----|--6-6-6-6--9-9-9-9---|
A|---------------6-6-6-6----9-9-9-9----|--4-4-4-4--7-7-7-7---|
E|---------------4-4-4-4----7-7-7-7----|---------------------|

-same rhythm as intro-

D# Ab5 B5
Fuel emotions, killing me,
D# Ab5 B5
Pure devotion, cut and bleed,
D# Ab5 B5
Your the crystal, the ecstasy,
C# E5
The drug that keeps feeding me,

So come on.
D# Ab5 B5
Torn together we sow the seed,
D# Ab5 B5
Bring the pleasure back for free,
D# Ab5 B5
The world is frozen but,
C# E5
I can taste new life every time I breathe.

Chorus:

chords:

B5 F# A5 Em
E|--------------------------------------------------------|
B|--------------------------------------------------------|
G|--------------------------------------------------------|
D|--9-9-9-9--4-4-4-4--7-7-7-7--2-2-2-2--------------------|
A|--9-9-9-9--4-4-4-4--7-7-7-7--2-2-2-2--------------------|
E|--7-7-7-7--2-2-2-2--5-5-5-5--0-0-0-0--------------------|

B5 F#
So come on, get in,
A5 Em
Take a ride, till you sink,
B5 F#
Come on, get in,
A5 Em
Let's feel a new high kicking in.

-back to intro riff2 x2-

Verse:

D# Ab5 B5
Change the system, break the shape,
D# Ab5 B5
New connection hands to make,
D# Ab5 B5 C#
Find the honey and learn to taste again,
E5
Bring it back again,

So come on.
D# Ab5 B5
Burn forever, learn to feed,
D# Ab5 B5
Find the pleasure it's yours to keep,
D# Ab5 B5
The world is frozen,
C# E5
But I can taste new life every time I breathe.

Chorus:

B5 F#
So come on, get in,
A5 Em
Take a ride, till you sink,
B5 F#
Come on, get in,
A5 Em B5
Let's feel a new high kicking in,
F#
Get in,
A5 Em
Take a ride, till you sink,
B5 F#
Come on, get in,
A5 Em
Let's feel a new high kicking in...

Solo: -Listen to CD for rhythm-

Cycle 1:

E|-----------9--12--11b-----------------------------------|
B|-------11-----------------------------------------------|
G|---11---------------------------------------------------|
D|--------------------------------------------------------|
A|--------------------------------------------------------|
E|--------------------------------------------------------|

Cycle 2:

E|-----------9--12--11--14b-------------------------------|
B|-------11-----------------------------------------------|
G|---11---------------------------------------------------|
D|--------------------------------------------------------|
A|--------------------------------------------------------|
E|--------------------------------------------------------|

Cycle 3:

E|-----------9--12--11-----11---12---14b------------------|
B|-------11-----------------------------------------------|
G|---11---------------------------------------------------|
D|--------------------------------------------------------|
A|--------------------------------------------------------|
E|--------------------------------------------------------|

-back to intro riff2 x2-

Verse:

D# Ab5 B5
Come together, feel the heat,
D# Ab5 B5
Suck the life left right out of me,
D# Ab5 B5
The world is frozen,
C# E5
But I can taste new life every time I breathe,
C#
Every step I take,
E5
Every drop I bleed.

Chorus:

B5 F#
So come on, get in,
A5 Em
Take a ride, till you sink,
B5 F#
Come on, get in,
A5 Em B5
Let's feel a new high kicking in,
F#
Get in,
A5 Em
Take a ride, till you sink,
B5 F#
Come on, get in,
A5 Em B5
Let's feel a new high kicking in,
F#
Get in,
A5 Em
Take a ride, till you sink,
B5 F#
Come on, get in,
A5 Em
Let's feel a new high kicking in.

--------------------
(c) 2003 January SHS
--------------------


Ваше мнение



Капча