Feeder - Godzilla
Tuning: Drop-D (D-A-D-G-B-E)
Intro/Verse x12
E-------------------------
B-------------------------
G-------------------------
D-13-3-3---3--36-6-6----
A-13-3-3---3--36-6-6----
D-13-3-3---3--36-6-6----
Bridge x2
E------------------------------------------------
B---------------------------------------7b~-8b~--
G------------------------------------------------ *Only play bends 2nd (not in last bridge)
D-1-1-1-1-1-1-1-1-1-15-5-5-5-5-5-5-5-(6)-------- time through
A-1-1-1-1-1-1-1-1-1-15-5-5-5-5-5-5-5-(6)--------
D-1-1-1-1-1-1-1-1-1-15-5-5-5-5-5-5-5-(6)-------- () only 2nd time (not in last bridge)

Intro/Verse riff x6
Bridge x2
Intro/Verse riff x2
Improvised sorta solo thing??
Intro/Verse Riff x4
Interlude x4
E-------------------------------------------------
B-------------------------------------------------
G-----------------------------------------8h9-----
D--1-1-1--2-2-2--1-1-1--2-2-2------8h9------------
A--1-1-1--2-2-2--1-1-1--2-2-2---------------------
D--1-1-1--2-2-2--1-1-1--2-2-2---------------------
Intro/Verse x6
Last Bridge x4
Fill (heard partly through the last bridge)
E-------------------------
B----15b~~~~~~~~~~~~~~----
G-------------------------
D-------------------------
A-------------------------
D-------------------------
Intro/Verse x 8
And thats it!!!
easy song!!!
Key
h = Hammer on
= slide down
~ = let note ring
b = bend note
Tabbed by James Graham (burnaway_fighte)
If any one has any corrections then e-mail on
[email protected]




Ваше мнение



Капча