INTRO AND VERSE

Play d5, c5 clean then cram on distortion for F5 and G5

E--------------------------------
B--------------------------------
G-7------5-----------------------
D-7------5------3-----5----------
A-5(X14)-3(X14)-1(X8)-5(X8)------
E-5------3------1-----3----------

PRE- CHORUS

E-------------------------
B-------------------------
G-5-6-5-6-5-6-5-6---------
D-----------------4-6-----
A-------------------------
E-------------------------

CHORUS
E-------------------------------------------------
B-------------------------------------------------
G-777/5555555-10101010----------------------------
D-777/5555555-10101010-3333333-5555555------------
A-555/3333333-8 8 8 8 -3333333-5555555------------
E-555/3333333-8 8 8 8 -1111111-3333333------------

INTERLUDE

E------------- ------------------------
B------------- ------------------------
G------------5 55555555-33333333-------
D-2-3-5-66-7-5 X2 then---> 55555555-33333333-------
A-2-3-5-66-7-3 33333333-11111111-------
E-0-1-3-44-5-3 33333333-11111111-------

OUTRO- at then end of the chorus play this;

E------------
B------------
G------------
D-3333-5555--
A-3333-5555--
E-1111-3333--

HERE'S THE SONG ORDER FOR YA!
verse x3
pre chorusx2
chorus x2
verse x3
pre-chorus x2
chorus x4
interlude x1
verse x3 bit different distortion
pre- chorus x2
chorus x4
outro x2




Ваше мнение



Капча