Come Back Around
Feeder
Alan Mcintyre
[email protected]
this song is the best
normal tuning
verses
|------------|
|------------|
|-5--10--8--3|
|------------|
heavy parts
|-----------------|
|---10----------10|
|---------8--9----|
|-10---10---------|
chorus
|-----------------------------------------------------|
|-----------------------------------------------------|
|-5-/-10--3-5---3--2--3-2-3----5--10--3--5--8-8--3-3-3|
|-----------------------------------------------------|long middle heavy bit
|----------------------|----------|
|-------------10--10h12|-8---10h12|
|--5--8--9--10---------|---8------|
|----------------------|----------|
thats basicly it,now we need a great drummer to tab it,and an exilent
guitarist to finish the song off,and some 1 with no musical talent
to tab the lyrics.




Ваше мнение



Капча