Artist: Feeder
Song: Choke
Album: Echo Park
Tabbed by: Aidan O'Brien ([email protected])
Intro
e|------------------------|
B|------------------------|
G|----------------------3-|
D|-5-5-x-3-3--5-5-x-3-3-3-| x2
A|-5-5-x-3-3--5-5-x-3-3-1-|
E|-3-3-x-1-1--3-3 x-1-1---|
Verse
OK a bit confusing but the notes in brackets are played when the other one isn't because
first he plays 6 * 12 then 5 * 5. The 5 SHOULD be played 4 times but he plays it 5 so it
carries on into the next bar, meaning that the next time only 11 6s are played. Listen
to it carfully and you should get the idea
e|-------------------------------------------------|
B|-(6)-6-6-6-6-6-6-6-6-6-6-6-6-6-6-6-6-5-5-5-5-(5)-|
G|-------------------------------------------------|
D|-------------------------------------------------|
A|-------------------------------------------------|
E|-------------------------------------------------|
Chorus
Same as intro
e|------------------------|
B|------------------------|
G|----------------------3-|
D|-5-5-x-3-3--5-5-x-3-3-3-| x2
A|-5-5-x-3-3--5-5-x-3-3-1-|
E|-3-3-x-1-1--3-3 x-1-1---|
Post Chorus
e|---------------------------------|
B|---------------------------------|
G|-5-5-5-5-5-5-5-5-8-8-8-8-3-3-3-3-|
D|-5-5-5-5-5-5-5-5-8-8-8-8-3-3-3-3-| x 4
A|-3-3-3-3-3-3-3-3-5-5-5-5-1-1-1-1-|
E|---------------------------------|
Slow, heavy part
e|-----------------------|
B|-----------------------|
G|-5-5--------------8-8--|
D|-5-5--2-2-4-4-5-5-8-8--|
A|-3-3--2-2-4-4-5-5-6-6--|
E|------0-0-2-2-3-3------|
Thats it! Except when you play the post chorus the second time, play it SIX times instead
of 4, and on the last (3rd) time, play it 8.
Have fun!




Ваше мнение



Капча