TITLE: Cement
ALBUM: Polythene
GROUP: Feeder
Drop-D Tuning
INTRO/VERSE:
e|------------------------------------------------------------------|
B|------------------------------------------------------------------|
G|------7-------7-------7-------7-------7-------7-------7-------7---|
D|------7-7-----7-7-----7-7-----7-7-----7-7-----7-7-----7-7-----7-7-|
A|----5-------5-------5-------5-------5-------5-------5-------5-----|
D|--0-------5-------0-------5-------0-------5-------0-------5-------|
It's funny how I watch the day go by
I'm sitting watching TV
Talk shows high
There's banging on the walls
My head aches
I'm drinking out the world
That I hate
VERSE: (2nd half)
e|------------------------------------------------------------------|
B|------------------------------------------------------------------|
G|----------7-7-7-7---------7-7-7-7---------7-7-7-7---------7-7-7-7-|
D|--0-0-0-0-7-7-7-7-0-0-0-0-7-7-7-7-0-0-0-0-7-7-7-7-0-0-0-0-7-7-7-7-|
A|--0-0-0-0-5-5-5-5-0-0-0-0-5-5-5-5-0-0-0-0-5-5-5-5-0-0-0-0-5-5-5-5-|
D|--0-0-0-0-5-5-5-5-0-0-0-0-5-5-5-5-0-0-0-0-5-5-5-5-0-0-0-0-5-5-5-5-|
I had a big car, new clothes everything
I've had a watch engraved in Switzerland
Today I saw her buying a magazine
It's time to get myself some therapy
CHOURS LINK:
e|------------------------------------------------------------------|
B|------------------------------------------------------------------|
G|--3-3-3-3-3-3-3-3-3-3-3-3-3-3-3-3-5-5-5-5-5-5-5-5-5-5-5-----------|
D|--3-3-3-3-3-3-3-3-3-3-3-3-3-3-3-3-5-5-5-5-5-5-5-5-5-5-5-0-3-0-3-0-|
A|--1-1-1-1-1-1-1-1-1-1-1-1-1-1-1-1-3-3-3-3-3-3-3-3-3-3-3-0-3-0-3-0-|
D|--------------------------------------------------------0-3-0-3-0-|
How can I stop this, how do I stop this
How can I stop this disease?
CHOURS:
e|--2---2---3---3---3---3-----------2---2---3---3---3---3-----------|
B|--3---3---3---3---3---3-----------3---3---3---3---3---3-----------|
G|--2---2---0---0---0---0-----------2---2---0---0---0---0-----------|
D|--0---0---0---0---0---0-0-3-0-3-0-0---0---0---0---0---0-0-3-0-3-0-|
A|--0---0---3---3---2---2-0-3-0-3-0-0---0---3---3---2---2-0-3-0-3-0-|
D|--0---0-----------------0-3-0-3-0-0---0-----------------0-3-0-3-0-|
She's got a new dress on (I'm in cement)
Sits by her radio (I'm in cement)
She's got those x-ray eyes (I'm in cement)
Don't know which way to go
VERSE:play once thru without lyrics.
e|------------------------------------------------------------------|
B|------------------------------------------------------------------|
G|------7-------7-------7-------7-------7-------7-------7-------7---|
D|------7-7-----7-7-----7-7-----7-7-----7-7-----7-7-----7-7-----7-7-|
A|----5-------5-------5-------5-------5-------5-------5-------5-----|
D|--0-------5-------0-------5-------0-------5-------0-------5-------|
It's funny but I dream for yesterday
I'm blistered by the burns that life has made
I'm staring out behind the window shade
I see her face across the street again
VERSE: (2nd half)
e|------------------------------------------------------------------|
B|------------------------------------------------------------------|
G|----------7-7-7-7---------7-7-7-7---------7-7-7-7---------7-7-7-7-|
D|--0-0-0-0-7-7-7-7-0-0-0-0-7-7-7-7-0-0-0-0-7-7-7-7-0-0-0-0-7-7-7-7-|
A|--0-0-0-0-5-5-5-5-0-0-0-0-5-5-5-5-0-0-0-0-5-5-5-5-0-0-0-0-5-5-5-5-|
D|--0-0-0-0-5-5-5-5-0-0-0-0-5-5-5-5-0-0-0-0-5-5-5-5-0-0-0-0-5-5-5-5-|
I'm in quicksand sinking in again
I've got concrete shoes and I can't swim
CHOURS LINK:
e|------------------------------------------------------------------|
B|------------------------------------------------------------------|
G|--3-3-3-3-3-3-3-3-3-3-3-3-3-3-3-3-5-5-5-5-5-5-5-5-5-5-5-----------|
D|--3-3-3-3-3-3-3-3-3-3-3-3-3-3-3-3-5-5-5-5-5-5-5-5-5-5-5-0-3-0-3-0-|
A|--1-1-1-1-1-1-1-1-1-1-1-1-1-1-1-1-3-3-3-3-3-3-3-3-3-3-3-0-3-0-3-0-|
D|--------------------------------------------------------0-3-0-3-0-|
How can I stop this, how do I stop this
How can I stop this disease?
CHOURS:
e|--2---2---3---3---3---3-----------2---2---3---3---3---3-----------|
B|--3---3---3---3---3---3-----------3---3---3---3---3---3-----------|
G|--2---2---0---0---0---0-----------2---2---0---0---0---0-----------|
D|--0---0---0---0---0---0-0-3-0-3-0-0---0---0---0---0---0-0-3-0-3-0-|
A|--0---0---3---3---2---2-0-3-0-3-0-0---0---3---3---2---2-0-3-0-3-0-|
D|--0---0-----------------0-3-0-3-0-0---0-----------------0-3-0-3-0-|
She's got a new dress on (I'm in cement)
Sits by her radio (I'm in cement)
She's got those x-ray eyes (I'm in cement)
Don't know which way to go
INTERLUDE:
e|----------------------------------3-3-3-3-3-3-3-3-3-3-3-3-3-3-3-3-|
B|----------------------------------3-3-3-3-3-3-3-3-3-3-3-3-3-3-3-3-|
G|----------------------------------0-0-0-0-0-0-0-0-2-2-2-2-2-2-2-2-|
D|--2-2-2-2-2-2-2-2-3-3-3-3-3-3-3-3-0-0-0-0-0-0-0-0-2-2-2-2-2-2-2-2-|
A|--2-2-2-2-2-2-2-2-3-3-3-3-3-3-3-3-3-3-3-2-2-2-2-2-0-0-0-0-0-0-0-0-|
D|--2-2-2-2-2-2-2-2-3-3-3-3-3-3-3-3---------------------------------|
I don't know what to do
But I know that I must pull through
I can't keep watching you
Solo:
e|---------------------------------------------|
B|--------------------------------------8p-7---|
G|--7h-9--7h-9--7h-9--7h-9--7h-9--7h-9---------|
D|---------------------------------------------|
A|---------------------------------------------|
D|---------------------------------------------|
e|-----------------------------------------------------|
B|--------------------------------7h-8--8h-10--12b-12--|
G|--7h-9--7h-9--7h-9--7h-9--7h-9-----------------------|
D|-----------------------------------------------------|
A|-----------------------------------------------------|
D|-----------------------------------------------------|
e|---------------------------------------------|
B|--------------------------------------8p-7---|
G|--7h-9--7h-9--7h-9--7h-9--7h-9--7h-9---------|
D|---------------------------------------------|
A|---------------------------------------------|
D|---------------------------------------------|
e|----------------------------------------------|
B|--7h-8--8s-10--10s-12--12s-13--13s-15--15s-17-|
G|----------------------------------------------|
D|----------------------------------------------|
A|----------------------------------------------|
D|----------------------------------------------|
CHOURS LINK:
e|------------------------------------------------------------------|
B|------------------------------------------------------------------|
G|--3-3-3-3-3-3-3-3-3-3-3-3-3-3-3-3-5-5-5-5-5-5-5-5-5-5-5-----------|
D|--3-3-3-3-3-3-3-3-3-3-3-3-3-3-3-3-5-5-5-5-5-5-5-5-5-5-5-0-3-0-3-0-|
A|--1-1-1-1-1-1-1-1-1-1-1-1-1-1-1-1-3-3-3-3-3-3-3-3-3-3-3-0-3-0-3-0-|
D|--------------------------------------------------------0-3-0-3-0-|
How can I stop this, how do I stop this
How can I stop this disease?
CHOURS:
e|--2---2---3---3---3---3-----------2---2---3---3---3---3-----------|
B|--3---3---3---3---3---3-----------3---3---3---3---3---3-----------|
G|--2---2---0---0---0---0-----------2---2---0---0---0---0-----------|
D|--0---0---0---0---0---0-0-3-0-3-0-0---0---0---0---0---0-0-3-0-3-0-|
A|--0---0---3---3---2---2-0-3-0-3-0-0---0---3---3---2---2-0-3-0-3-0-|
D|--0---0-----------------0-3-0-3-0-0---0-----------------0-3-0-3-0-|
She's got a new dress on (I'm in cement)
Sits by her radio (I'm in cement)
She's got those x-ray eyes (I'm in cement)
Don't know which way to go
She's got a new dress on (I'm in cement)
She's got a new dress on (I'm in cement)
She's got a new dress on (I'm in cement)
She's got a new dress on______ YEAH!




Ваше мнение



Капча