INTRO/VERSE

E--------------------------------------------------------------------------------------
B--------------------------------------------------------------------------------------
G--------------------------------------------------------------------------------------
D--2-4-2-4-2-4-2-4-5-5-4---------------------------------------------------------------
A--2-4-2-4-2-4-2-4-5-5-4---------------------------------------------------------------
E--0-2-0-2-0-2-0-2-3-3-2---------------------------------------------------------------

Mother can you feed me now...

BREAK
E--------------------------------------------------------------------------------------
B--------------------------------------------------------------------------------------
G--------------------------------------------------------------------------------------
D--2-2-2-2-2-2-2-2-2-2-----------------------------Play it many times...
A--2-2-2-2-2-2-2-2-2-2-----------------------------
E--0-0-0-0-0-0-0-0-0-0-----------------------------

Feed me now, feed me now

CHORUS
E--------------------------------------------------------------------------------------
B--------------------------------------------------------------------------------------
G--------------------------------------------------------------------------------------
D--4-4-5-5-4-4--2----------------------------------------------------------------------
A--4-4-5-5-4-4--2----------------------------------------------------------------------
E--2-2-3-3-2-2--0----------------------------------------------------------------------

Revolution, revolution

BRIDGE?

E--------------------------------------------------------------------------------------
B--------------------------------------------------------------------------------------
G--------------------------------------------------------------------------------------
D--4-4-4-4-4-4-4-4-4-4-4-4--5-5-5------------------------------------------------------
A--4-4-4-4-4-4-4-4-4-4-4-4--5-5-5------------------------------------------------------
E--2-2-2-2-2-2-2-2-2-2-2-2--3-3-3------------------------------------------------------

SONG ORDER

Im sure that it is( and be careful!)

INTRO x 2
VERSE x 2
BREAK x ?
VERSE x 2
BREAK x ?
CHORUS x 4
VERSE x 4
BREAK x ?
VERSE x 2
BREAK x ?
CHORUS x 6
VERSE x 2
BRIDGE x 4
VERSE x 2
BREAK x ?
VERSE x 2
CHORUS x 8

LOOKS A LOT!




Ваше мнение



Капча