Music X Tabs [http://www.mxtabs.net]
Standard tuning
New song of Echo Park one of my favourites. Sounds ok to me check it out.
Intro/verse
E--------------------------------------------------------|
b--------------------------------------------------------|
g--------------------------------------------------------|
d--0-4-0-4-0-4-0-4-5-5-4---------------------------------|
a--0-4-0-4-0-4-0-4-5-5-4---------------------------------|
e--0-2-0-2-0-2-0-2-3-3-2---------------------------------|
Mother can you feed me now...
Break
E---------------------------------------------------------|
b---------------------------------------------------------|
g---------------------------------------------------------|
d--0-0-0-0-0----------------------------------------------|
a--0-0-0-0-0----------------------------------------------| play a lot of times
e--0-0-0-0-0----------------------------------------------|
Feed me now, feed me now...
Chorus
e--------------------------------------------------------|
b--------------------------------------------------------|
g--------------------------------------------------------|
d--4-4-5-5-4-4--0----------------------------------------|
a--4-4-5-5-4-4--0----------------------------------------|
E--2-2-3-3-2-2--0----------------------------------------|
Revolution, revolution?.
Other part that crops up
e--------------------------------------------------------|
b--------------------------------------------------------|
g--------------------------------------------------------|
d--4-4-4-4-4-4-4-4-4-4-4-4--5-5-5------------------------|
a--4-4-4-4-4-4-4-4-4-4-4-4--5-5-5------------------------|
E--2-2-2-2-2-2-2-2-2-2-2-2--3-3-3------------------------|
(Grant shouting something a couple of times)
There it is enjoy!
Adam F




Ваше мнение



Капча