This tab is 100% correct i played it live on stage at the qecc rock skool =)
Intro
E---------------------------------------------------
B---------------------------------------------------
G---------------------------------------------------
D---------------------------------------------------
A--9-9-9-9-9-9-9-9-6-6-6-6-7-7-7-7-----------------
E--0-0-0-0-0-0-0-0-4-4-4-4-5-5-5-5--X6--(play softly)
E-------------------------------------------
B-------------------------------------------
G-------------------------------------------
D--2-2-2-2-2-2-2-2-6-6-6-6-7-7-7-7----------
A--2-2-2-2-2-2-2-2-6-6-6-6-7-7-7-7--X2-----
E--0-0-0-0-0-0-0-0-4-4-4-4-5-5-5-5----------
E-----------------------------------------
B-----------------------------------------
G-----------------------------------------
D--9-9-9-9-9-9-9-9-7-7-7-7-7-7-7-7~~------
A--9-9-9-9-9-9-9-9-7-7-7-7-7-7-7-7~~-------
E--7-7-7-7-7-7-7-7-5-5-5-5-5-5-5-5~~----X1--
E----------------------------------------------------------------------------
B----------------------------------------------------------------------------
G----------------------------------------------------------------------------
D--2-2-2-2-2-2-2-2-9-9-9-9-9-9-9-9-11-11-11-11-11-11-11-11-7-7-7-7-7-7-7-7---
A--2-2-2-2-2-2-2-2-9-9-9-9-9-9-9-9-11-11-11-11-11-11-11-11-7-7-7-7-7-7-7-7---(use distortion or hit hard if clean)
E--0-0-0-0-0-0-0-0-7-7-7-7-7-7-7-7--9--9--9--9--9--9--9--9-5-5-5-5-5-5-5-5--
E---------------------------------------------------------------------
B---------------------------------------------------------------------
G---------------------------------------------------------------------
D--2-2-2-2-2-2-2-2-9-9-9-9-9-9-9-9-7-7-7-7-7-7-7-7-7-7-7-7-7-7-7-7~~--
A--2-2-2-2-2-2-2-2-9-9-9-9-9-9-9-9-7-7-7-7-7-7-7-7-7-7-7-7-7-7-7-7~~--
E--0-0-0-0-0-0-0-0-7-7-7-7-7-7-7-7-5-5-5-5-5-5-5-5-5-5-5-5-5-5-5-5~~--
E-------------------------------------------
B-------------------------------------------
G-------------------------------------------
D--2-2-2-2-2-2-2-2-6-6-6-6-7-7-7-7----------
A--2-2-2-2-2-2-2-2-6-6-6-6-7-7-7-7--X2-----
E--0-0-0-0-0-0-0-0-4-4-4-4-5-5-5-5----------
E-------------------------------------------
B-------------------------------------------
G-------------------------------------------
D--2-2-2-2-2-2-2-2-6-6-6-6-7-7-7-7----------
A--2-2-2-2-2-2-2-2-6-6-6-6-7-7-7-7--X2-----
E--0-0-0-0-0-0-0-0-4-4-4-4-5-5-5-5----------
E----------------------------------------------------
B----------------------------------------------------
G----------------------------------------------------
D----------------------------------------------------
A--9-9-9-9-9-9-9-9-6-6-6-6-7-7-7-7-------------------
E--0-0-0-0-0-0-0-0-4-4-4-4-5-5-5-5--X6--(play softly)

E-------------------------------------------------------------------------------
B-------------------------------------------------------------------------------
G-------------------------------------------------------------------------------
2-2-2-2-2-2-2-2-6-6-6-6-7-7-7-7------------------------------------------------
A--2-2-2-2-2-2-2-2-6-6-6-6-7-7-7-7--X2-----(use distortion or hit hard if clean)
E--0-0-0-0-0-0-0-0-4-4-4-4-5-5-5-5----------------------------------------------

E--------------------------------------------------------------------------------
B--------------------------------------------------------------------------------
G--------------------------------------------------------------------------------
D--9-9-9-9-9-9-9-9-7-7-7-7-7-7-7-7~~---------------------------------------------
A--9-9-9-9-9-9-9-9-7-7-7-7-7-7-7-7~~---------(use distortion or hit hard if clean)
E--7-7-7-7-7-7-7-7-5-5-5-5-5-5-5-5~~----X1----------------------------------------
E-------------------------------------------------------------------------
B---------------------------------------------------------------------------
G-------------------------------------------------------------------------
D--2-2-2-2-2-2-2-2-9-9-9-9-9-9-9-9-11-11-11-11-11-11-11-11-7-7-7-7-7-7-7-7-----
A--2-2-2-2-2-2-2-2-9-9-9-9-9-9-9-9-11-11-11-11-11-11-11-11-7-7-7-7-7-7-7-7---
E--0-0-0-0-0-0-0-0-7-7-7-7-7-7-7-7--9--9--9--9--9--9--9--9-5-5-5-5-5-5-5-5----
E-------------------------------------------------------------------------
B--------------------------------------------------------------------------
G-------------------------------------------------------------------------
D--2-2-2-2-2-2-2-2-9-9-9-9-9-9-9-9-7-7-7-7-7-7-7-7-7-7-7-7-7-7-7-7~~--------
A--2-2-2-2-2-2-2-2-9-9-9-9-9-9-9-9-7-7-7-7-7-7-7-7-7-7-7-7-7-7-7-7~~--------
E--0-0-0-0-0-0-0-0-7-7-7-7-7-7-7-7-5-5-5-5-5-5-5-5-5-5-5-5-5-5-5-5~~--------
E------------------------------------------------------------------------------
B-------------------------------------------------------------------------------
G-------------------------------------------------------------------------------
D--2-2-2-2-2-2-2-2-9-9-9-9-9-9-9-9-11-11-11-11-11-11-11-11-7-7-7-7-7-7-7-7----------
A--2-2-2-2-2-2-2-2-9-9-9-9-9-9-9-9-11-11-11-11-11-11-11-11-7-7-7-7-7-7-7-7---
E--0-0-0-0-0-0-0-0-7-7-7-7-7-7-7-7--9--9--9--9--9--9--9--9-5-5-5-5-5-5-5-5-------
E-------------------------------------------------------
B---------------------------------------------------------
G----------------------------------------------------------
D--2-2-2-2-2-2-2-2-9-9-9-9-9-9-9-9-7-7-7-7-7-7-7-7~~------
A--2-2-2-2-2-2-2-2-9-9-9-9-9-9-9-9-7-7-7-7-7-7-7-7~~-----
E--0-0-0-0-0-0-0-0-7-7-7-7-7-7-7-7-5-5-5-5-5-5-5-5~~------

E-----------------------------------------------------------------------------------
B-----------------------------------------------------------------------------------
G-----------------------------------------------------------------------------------
D--4-4-4-4-6-7-7-7---10-10-10-10---4-4-4-4-6-7-7-7-7-7-7-7--------------------------
A--4-4-4-4-6-7-7-7---10-10-10-10---4-4-4-4-6-7-7-7-7-7-7-7------(fast interlude bit)
E--2-2-2-2-4-5-5-5----8--8--8--8---2-2-2-2-4-5-5-5-5-5-5-5--------------------------
Bridge
E----------------------------------------
B----------------------------------------
G--13-13-13-11-11-11-11-8-8-8-8-6-6-6-X4-
D----------------------------------------
A----------------------------------------
E----------------------------------------
E---------------------------------------------------------------------------------
B---------------------------------------------------------------------------------
G--------------------------------------------------------------------------------
D--2-2-2-2-2-2-2-2-6-6-6-6-7-7-7-7-----------------------------------------------
A--2-2-2-2-2-2-2-2-6-6-6-6-7-7-7-7--X2-----(use distortion or hit hard if clean)-
E--0-0-0-0-0-0-0-0-4-4-4-4-5-5-5-5-----------------------------------------------
E---------------------------------------------------------------------------
B--------------------------------------------------------------------------
G--------------------------------------------------------------------------
D--2-2-2-2-2-2-2-2-9-9-9-9-9-9-9-9-11-11-11-11-11-11-11-11-7-7-7-7-7-7-7-7--
A--2-2-2-2-2-2-2-2-9-9-9-9-9-9-9-9-11-11-11-11-11-11-11-11-7-7-7-7-7-7-7-7--
E--0-0-0-0-0-0-0-0-7-7-7-7-7-7-7-7--9--9--9--9--9--9--9--9-5-5-5-5-5-5-5-5---
E-------------------------------------------------------------------
B-------------------------------------------------------------------
G-------------------------------------------------------------------
D--2-2-2-2-2-2-2-2-9-9-9-9-9-9-9-9-7-7-7-7-7-7-7-7-7-7-7-7-7-7-7-7--
A--2-2-2-2-2-2-2-2-9-9-9-9-9-9-9-9-7-7-7-7-7-7-7-7-7-7-7-7-7-7-7-7--
E--0-0-0-0-0-0-0-0-7-7-7-7-7-7-7-7-5-5-5-5-5-5-5-5-5-5-5-5-5-5-5-5--
E--------------------------------------------------------------------------
B---------------------------------------------------------------------------
D--2-2-2-2-2-2-2-2-9-9-9-9-9-9-9-9-11-11-11-11-11-11-11-11-7-7-7-7-7-7-7-7--
A--2-2-2-2-2-2-2-2-9-9-9-9-9-9-9-9-11-11-11-11-11-11-11-11-7-7-7-7-7-7-7-7--
E--0-0-0-0-0-0-0-0-7-7-7-7-7-7-7-7--9--9--9--9--9--9--9--9-5-5-5-5-5-5-5-5--
E----------------------------------------------------------------------------------------
B----------------------------------------------------------------------------------------
G----------------------------------------------------------------------------------------
D--2-2-2-2-2-2-2-2-9-9-9-9-9-9-9-9-7-7-7-7-7-7-7-7---------------------------------------
A--2-2-2-2-2-2-2-2-9-9-9-9-9-9-9-9-7-7-7-7-7-7-7-7--(use distortion or hit hard if clean)
E--0-0-0-0-0-0-0-0-7-7-7-7-7-7-7-7-5-5-5-5-5-5-5-5---------------------------------------
E---------------------------------------
B---------------------------------------
G---------------------------------------
D--2-2-2-2-2-2-2-2-6-6-6-6-7-7-7-7------
A--2-2-2-2-2-2-2-2-6-6-6-6-7-7-7-7--X1--
E--0-0-0-0-0-0-0-0-4-4-4-4-5-5-5-5------
_________________________________________________________________________________________
2nd guitar
E-------7---7---7---7---6---6---5---5---5--------
B-----5---5---5---5---5---5---5---5---5---5----
G----------------------------------------------
D-----------------------------------------------
A----------------------------------------------
E----------------------------------------------
The second guitar comes in on the intro after the main guitar has played the riff twice. u probably dont know wot i mean, listen to the song!




Ваше мнение



Капча