Anaesthetic by Feeder
From the Album Yesterday Went Too Soon


Intro & verse

|-------------------|
|---5-----3---------|
|------3-----3------|
|-------------------|
pre-chorus fill
|------------------------|
|---5----3--3-2----------|
|------3--------3--------|
|------------------------|

2nd verse
|-------------------|
|---5-----3---------|
|------3-----3------|
|-------------------|
then play the fill
|------------------------|
|---5----3--3-2----------|
|------3--------3--------|
|------------------------|
then
|------5-----5------|
|---5-----3---------|
|-------------------|
|-------------------|
Chorus
|-----------------------------|
|-----------------------------|
|-----1---1---3--3-3-3-3-2-1--|
|---3---3---3-----------------|

Near End

|------------------|
|------------------|
|------3----3------|
|---3-----1--------|

Fill near end of song
|------------------|
|---3-3-3-2-3-2----|
|---------------3--|
|------------------|




Ваше мнение



Капча