Fear Factory-A Therapy For Pain-
Tuning-B,E,A,D,F#,B

-Intro-(let ring)
|-----------------------------------------------------|
|-----------------------------------------------------|
|-----------------------------------------------------|
|--10-------------------------------------------------|
|--10-------------------------------------------------|
|--8--------------------------------------------------|

Riff B:
|-----------------------------------------------------|
|-----------------------------------------------------|
|-----------------------------------------------------|
|--10-------10--9-----5-----8--------8--7-----3-------|
|--10-------10--9-----5-----8--------8--7-----3-------|
|--8--------8---7-----3-----6--------6--5-----1-------|

Riff C:
Fade out w/ keyboards and bass in unison with guitar
|-----------------------------------------------------|
|-----------------------------------------------------|
|-----------------------------------------------------|
|--3--------------------------------------------------|
|--3--------------------------------------------------|
|--1--------------------------------------------------|




Ваше мнение



Капча