Key:

*: palm muted note
h: hammer-on
p: pull-off
b: bend
r: release
/: slide up
: slide down
v: vibrato
t: right hand tap
x: muted note (or rake)
n.h.: natural harmonic
a.h.: artificial harmonic

Tuning: 7-string guitar on a 6-string down tuned a full
step (A D G C F A).

Riff A
-|---------------------------------------------------------------------------|
-|---------------------------------------------------------------------------|
-|---------------------------------------------------------------------------|
-|---------------------------------------------------------------------------|
-|---------------------------------------------------------------------------|
-|-4-33---4-33---4-3-4-33---4-33---4-3-4-33---4-33---4-3-4-33---4343434343---|
* ** * ** * * * ** * ** * * * ** * ** * * * ** **********

Riff B
-|-----------|----------------------------------------------------------------|
-|-----------|----------------------------------------------------------------|
-|-----------|----------------------------------------------------------------|
-|-----------|----------------------------------------------------------------|
-|-----------|----------------------------------------------------------------|
-|-43434343--|----------------------------------------------------------------|
********

Riff C
-|-------|--------------------------------------------------------------------|
-|-------|--------------------------------------------------------------------|
-|-------|--------------------------------------------------------------------|
-|-------|--------------------------------------------------------------------|
-|-------|--------------------------------------------------------------------|
-|-4-33--|--------------------------------------------------------------------|
* **

Riff D
-|------------------------------------|---------------------------------------|
-|------------------------------------|---------------------------------------|
-|------------------------------------|---------------------------------------|
-|------------------------------------|---------------------------------------|
-|------------------------------------|---------------------------------------|
-|-4-33---4-3-4-33---4-33---4-3-4-33--|---------------------------------------|
* ** * * * ** * ** * * * **

Riff E
-|-----------------------------|----------------------------------------------|
-|-----------------------------|----------------------------------------------|
-|-----------------------------|----------------------------------------------|
-|-----------------------------|----------------------------------------------|
-|--------------------------6--|----------------------------------------------|
-|-4-33---4-3-4-33---4-33---4--|----------------------------------------------|
* ** * * * ** * ** *

Riff F
-|-----------------------------|----------------------------------------------|
-|-----------------------------|----------------------------------------------|
-|-----------------------------|----------------------------------------------|
-|-----------------------------|----------------------------------------------|
-|-----------------------------|----------------------------------------------|
-|-4-33---4-3-4-33---43434343--|----------------------------------------------|
* ** * * * ** ********

Riff G
-|----------------------------------|-----------------------------------------|
-|----------------------------------|-----------------------------------------|
-|----------------------------------|-----------------------------------------|
-|-4-4-4-6-6-6-5-5-4-4-4-6-6-9-5-5--|-----------------------------------------|
-|-4-4-4-6-6-6-5-5-4-4-4-6-6-9-5-5--|-----------------------------------------|
-|-2-2-2-4-4-4-3-3-2-2-2-4-4-7-3-3--|-----------------------------------------|

Riff H
-|----------------------------------|-----------------------------------------|
-|----------------------------------|-----------------------------------------|
-|----------------------------------|-----------------------------------------|
-|-4-4-4-6-6-6------4-----6----9-5--|-----------------------------------------|
-|-4-4-4-6-6-6------4-----6----9-5--|-----------------------------------------|
-|-2-2-2-4-4-4-3333-2-----4----7-3--|-----------------------------------------|
****

Riff I
-|----------------------------------|-----------------------------------------|
-|----------------------------------|-----------------------------------------|
-|----------------------------------|-----------------------------------------|
-|-4-4-4-6-6-6-5-5--4-----6----9-5--|-----------------------------------------|
-|-4-4-4-6-6-6-5-5--4-----6----9-5--|-----------------------------------------|
-|-2-2-2-4-4-4-3-3--2-----4----7-3--|-----------------------------------------|

Riff J
-|---------------------------------------------------------|------------------|
-|---------------------------------------------------------|------------------|
-|---------------------------------------------------------|------------------|
-|-5-5-5--5-5-5--5-5-5--5-5-5--3-3-3--3-3-3--3-3-3--3-3-3--|------------------|
-|-3-5-3--5-3-5--2-5-2--5-2-5--1-3-1--3-1-3--0-3-0--3-3-3--|------------------|
-|---------------------------------------------------------|------------------|

Riff K
-|---------------------------------------------------------|------------------|
-|---------------------------------------------------------|------------------|
-|---------------------------------------------------------|------------------|
-|-5-5-5--5-5-5--5-5-5--5-5-5--3-3-3--3-3-3--3-3-3--3-3-3--|------------------|
-|-3-5-3--5-5-5--2-2-2--5-5-5--1-3-1--3-3-3--0-3-0--3-3-3--|------------------|
-|---------------------------------------------------------|------------------|

Riff L
-|--------------------------------|-------------------------------------------|
-|--------------------------------|-------------------------------------------|
-|--------------------------------|-------------------------------------------|
-|-5---------------------------5--|-------------------------------------------|
-|-5---------------------------5--|-------------------------------------------|
-|-3------------------------33-3--|-------------------------------------------|

Riff M
-|-----------------------------------------------|----------------------------|
-|-----------------------------------------------|----------------------------|
-|-----------------------------------------------|----------------------------|
-|-----------------------------------------------|----------------------------|
-|-----------------------------------------------|----------------------------|
-|-43--34-44-43--34-44-43--34-44-43-44-44-44-43--|----------------------------|
** ** ** ** ** ** ** ** ** ** ** ** ** **

cont.
-|-----------------------------------------------|----------------------------|
-|-----------------------------------------------|----------------------------|
-|-----------------------------------------------|----------------------------|
-|-----------------------------------------------|----------------------------|
-|-----------------------------------------------|----------------------------|
-|-43--43-44-43--34-44-43--34-44-43444444444443--|----------------------------|
** ** ** ** ** ** ** ** ** **************

Riff N
-|-----------------------------------------------|----------------------------|
-|-----------------------------------------------|----------------------------|
-|-----------------------------------------------|----------------------------|
-|-----------------------------------------------|----------------------------|
-|-----------------------------------------------|----------------------------|
-|-43--34-44-43--34-44-43--34-44-43-44-44-44-43--|----------------------------|
** ** ** ** ** ** ** ** ** ** ** ** ** **

cont.
-|-----------------------------------|----------------------------------------|
-|-----------------------------------|----------------------------------------|
-|-----------------------------------|----------------------------------------|
-|-----------------------------------|----------------------------------------|
-|--------------------------------5--|----------------------------------------|
-|-43--34-44-43--34-44-43--34-44--3--|----------------------------------------|
** ** ** ** ** ** ** ** ** *

Riff O
-|------------------------------------------------------------|---------------|
-|------------------------------------------------------------|---------------|
-|------------------------------------------------------------|---------------|
-|-5-5-5--5-5-5--5-5-5---5-5-5--3-3-3--3-3-3--3-3-3--------5--|---------------|
-|-3-5-3--5-5-5--2-5-2---5-5-5--1-3-1--3-3-3--0-3-0--------5--|---------------|
-|---------------------------------------------------3-3-3-3--|---------------|
* * *

Riff P
-|-----------------------------------|----------------------------------------|
-|-----------------------------------|----------------------------------------|
-|-----------------------------------|----------------------------------------|
-|-----------------------------------|----------------------------------------|
-|-----------------------------------|----------------------------------------|
-|-2-2-2-4-4-4-333--2-2-2-4-4-7-333--|----------------------------------------|
* * * * * * *** * * * * * * ***

Riff Q
-|-----------------------------------|----------------------------------------|
-|-----------------------------------|----------------------------------------|
-|-----------------------------------|----------------------------------------|
-|-----------------------------------|----------------------------------------|
-|-----------------------------------|----------------------------------------|
-|-2-2-2-4-4-4-333--2-2-2-444477333--|----------------------------------------|
* * * * * * *** * * * *********

Riff R
-|--------------------|-------------------------------------------------------|
-|--------------------|-------------------------------------------------------|
-|--------------------|-------------------------------------------------------|
-|--------------------|-------------------------------------------------------|
-|-----------------5--|-------------------------------------------------------|
-|-2-2-2-4-4-4-3-3-3--|-------------------------------------------------------|
* * * * * * * * *

Riff S
-|----------------------------------|-----------------------------------------|
-|----------------------------------|-----------------------------------------|
-|----------------------------------|-----------------------------------------|
-|----------------------------------|-----------------------------------------|
-|----------------------------------|-----------------------------------------|
-|-2222224444443332222224444773333--|-----------------------------------------|
*******************************

Riff T
-|----------------------------------|-----------------------------------------|
-|----------------------------------|-----------------------------------------|
-|----------------------------------|-----------------------------------------|
-|------------------4-----6----9-5--|-----------------------------------------|
-|------------------4-----6----9-5--|-----------------------------------------|
-|-2222224444443333-2-----4----7-3--|-----------------------------------------|
****************

Arrangement:

Riff A (x4)
Riff B (x1)
Riff C (x1)
Riff D (x3)
Riff E (x1)
Riff C (x1)
Riff D (x3)
Riff F (x1)
Riff G (x3)
Riff H (x1)
Riff A (x2)
Riff C (x1)
Riff D (x3)
Riff E (x1)
Riff C (x1)
Riff D (x1)
Riff F (x1)
Riff C (x1)
Riff D (x1)
Riff F (x1)
Riff G (x7)
Riff I (x1)
Riff J (x2)
Riff K (x2)
Riff L (x1)
Riff M (x4)
Riff N (x1)
Riff J (x2)
Riff K (x1)
Riff 0 (x1)
Riff P (x1)
Riff Q (x1)
Riff P (x1)
Riff R (x1)
Riff G (x4)
Riff S (x3)
Riff T (x1)
Riff A (x2)
Riff C (x1)
Riff F (x1)
Riff C (x1)
Riff F (x1)
Riff B (x1)
End




Ваше мнение



Капча