======================================================================
FEAR FACTORY - SELF IMMOLATION
======================================================================
song:Self Immolation
artist:Fear Factory
transcribed by Brian Van Maurik [email protected]
submitted by Kevin Grubba
Tune all strings down a perfect fourth (B, E, A, D, F#, B)
Riff A (slight palm mute here very slight)
|-------------------------------------------------------------|
|-------------------------------------------------------------|
|-------------------------------------------------------------|
|--2-2-2-2-3--2-2-3-3-2---2-2-2-2-3--2-2-3-3-2----------------|
|--2-2-2-2-3--2-2-3-3-2---2-2-2-2-3--2-2-3-3-2----------------|
|--0-0-0-0-1--0-0-1-1-0---0-0-0-0-1--0-0-1-1-0(3333333333)----|
* * * * * * * * * * * * * * * * * * * * **********
Riff B (chorus)
|--------------------------|
|--------------------------|
|---9p6-8p6--9p6-8p6-10----|
|--------------------------|
|--------------------------|
|--------------------------|
Riff C (part that is in the background )
|-----------------------------|
|-----------------------------|
|-----------------------------|
|-----------------------------|
|-----------------------------|
|--8---/-9-/-12--11--7------|
Song starts with bass playing
drummer starts hitting cymbals
Riff A 4 times
Riff B 4 times
Riff A 4 times
Riff B 8 times
Riff C 4 times(bass or other guitar play riff A without notes in().)
Riff A 4 times
Riff B 4 times
bass plays riff A
Riff B 4 times
first half of Riff A




Ваше мнение



Капча