Artist: Fear Factory
Title: Securitron
Album: Obsolete
Transcribed by: Brian Van Maurik ([email protected])

7 String guitar tuned down a step (A,D,G,C,F,A,D)
or six string tuned down 3 1/2 steps (A,D,G,C,F,A)

Not quite complete. Only a couple riffs missing.

Palm mute when necessary!!!!!!!!!!!!!!!!!!!!

-|--------|------|--------|------|--------|-------|--------|------|-----------
-|--------|------|--------|------|--------|-------|--------|------|-----------
-|--------|------|--------|------|--------|-------|--------|------|-----------
-|--------|------|--------|------|--------|-------|--------|------|-----------
-|--------|------|--------|------|--------|-------|--------|------|-----------
-|-333353-|------|-333353-|------|-333353-|-------|-333353-|------|-----------
****** rest ****** rest ****** rest ****** rest

-|---------|------|--------|------|--------|------|--------|------|-----------
-|---------|------|--------|------|--------|------|--------|------|-----------
-|---------|------|--------|------|--------|------|--------|------|-----------
-|---------|------|--------|------|--------|------|--------|------|-----------
-|---------|------|--------|------|--------|------|--------|------|-----------
-|-3333-53-|------|-333353-|------|-333353-|------|-333353-|------|-----------
**** ** bass ****** bass ****** bass ****** bass

-|--------|-----------|--------|----------|--------|----------|--------|------
-|--------|-----------|--------|----------|--------|----------|--------|------
-|--------|-----------|--------|----------|--------|----------|--------|------
-|--------|-----------|--------|----------|--------|----------|--------|-3/4--
-|--------|-----------|--------|----------|--------|----------|--------|-1/3--
-|-333353-|-3-5-3-5-3-|-333353-|-3-5-3-5-3|-333353-|-3-5-3-5-3|-333353-|------
main riff ****** * * * * * ****** * * * * * last time....

--------|--------|----------|--------|------------|--------|-------------|----
--------|--------|----------|--------|------------|--------|-------------|----
--------|--------|----------|--------|------------|--------|-------------|----
-4-3/4--|--------|----------|--------|-3/4-4-3/4--|--------|-3/4-4-3/4---|----
-2-1/2--|--------|----------|--------|-1/2-2-1/2--|--------|-1/2-2-1/2---|----
--------|-333353-|-3-5-3-5-3|-333353-|------------|-333353-|-------------|----
.... verse play a few times end with above to serve...and protect..

-|-------------|-------------|-------------|-----------------|----------------
-|-------------|-------------|-------------|-----------------|----------------
-|-------------|-------------|-------------|-----------------|----------------
-|-------------|-------------|-------------|-------3/4-4-3/4-|-7---0---5--0---
-|-555555-5555-|-333333-3333-|-222222-2222-|-00000-1/2-2-1/2-|----------------
-|-------------|-------------|-------------|-----------------|----------------
interlude listen for rhythm play this 2x where is

---------------|-------------------|----------------------|---------------|---
---------------|-------------------|----------------------|---------------|---
---------------|-------------------|----------------------|---------------|---
-2--0---1--1---|-9--11-7---5-------|----------------------|---------------|---
---------------|-7--9--5---3-------|----------------------|--7-8-5--------|---
---------------|-------------------|----------------------|--5-6-3--33-34-|---
security? no place to hide... don't know this riff interlude

----------------|-------------|----------------|-----------|-------------|----
----------------|-------------|----------------|-----------|-------------|----
----------------|-------------|----------------|-----------|-------------|----
----------------|-------------|----------------|-----------|-------------|----
----------------|-------------|----------------|-----------|-------------|----
----------------|-33333333333-|----------------|-333333333-|-563-563-563-|----
bass and synth bass and synth to concede you

-------------|-|-------------------|------------|-----------------------------
-------------|-|-------------------|------------|-----------------------------
-------------|-|-------------------|------------|-----------------------------
-------------|-|-------------------|------------|-----------------------------
-------------|-|-7-8-5-7-8-5-7-8-5-|------------|-----------------------------
-33333333333-|-|-5-6-3-5-6-3-5-6-3-|-3333333333-|-----------------------------
r rights.... all must abide....




Ваше мнение



Капча