-##
Date: Mon, 30 Oct 1995 11:04:45 -0700 (MST)
From: Patrick Dixon
Subject: Scumgrief by Fear Factory

SCUMGRIEF by FEAR FACTORY
taken from the album "SOUL OF A NEW MACHINE"

tune all guitar down one full step

intro
--------------------------------
--------------------------------
--------------------------------
-2----5-5-----------------------
-2----3-2--5--------------------
-0---------3----3-3-3-5-5-5-2-3-

preverse
------------------------
------------------------
------------------------
-2-2-2-2-2-2-2-2-2-2-2-2
-2-2-2-2-2-2-2-2-2-2-2-2
-0-0-0-0-0-0-0-0-0-0-0-0

verse
----------------------
----------------------
----------------------
-2-2-2-2-2-2-2-2-2-5--
-2-2-2-2-2-2-2-2-2-3--
-0-0-0-0-0-0-0-0-0----
|heavy feedback

chorus (same as intro)

LYRICS

Wires around your arms
Like wires around your head
Crucifix of me
Above your bed

I've seen the wounds
That you can't hide
You bleed well
When I cry

Cry, cry, cry, cry
Scumgrief, Scumgrief

Smell the rats of devience
Coursing thru your veins
Rotting faith in yourself
Confined alone to decay
I've seen the wounds
That you can't hide
You bleed well
With the rat inside

Smell the rats of devience
Coursing thru your veins
Rotting faith in yourself
Confined alone to decay
I've seen the wounds
That you can't hide
You bleed well
With the rat inside

Cry, cry, cry, cry (repeat 'til end)

that's about it... the parts i didn't tab are easy to figure out...
there's a variety of different ways of playing it, so find one you like
and stick with it.

Pat Dixon ([email protected])

http://alpha.pr1.k12.co.us/~pdixon/fear-factory/fear_factory.html




Ваше мнение



Капча