-##
Date: Tue, 23 May 1995 12:53:03 +0100
From: [email protected] (SLH - Once Upon The Cross)
Band : Fear Factory
Song : Scapegoat
Written : Music by Dino Cazares, Lyrics by Burton C. Bell
Transcribed by : Paul Williams ([email protected])
Here is the tab to 'Scapegoat' by Fear Factory taken from the
'Soul Of A New Machine' album. Fuckin killer album, I can't wait
until 'Demanufacture' is released.
This isn't 100% correct so any changes please mail me, if you just
want to chat about Thrash, Death, Hardcore music then mail me.
******************************
* [email protected] *
******************************
Here it is -
**Note - Tune all strings down one whole step**
Rhy Fig (1)
D |------------------------------------------------|
A |------------------------------------------------|
F |------------------------------------------------|
C |3-3-----3-3-----3-3-----3-3---------------------|
G |3-3-----3-3-----3-3-----3-3---------------------|
D |1-1-----1-1-----1-1-----1-1----1-1-1-1-1-1-1-1--|
p.m...............................................|
Rhy Fig (2)
D |---------------------------------|
A |---------------------------------|
F |---------------------------------|
C |3--3--3--6--3--3--3--5--3--3--5--|
G |3--3--3--6--3--3--3--5--3--3--6--|
D |1--1--1--4--1--1--1--3--1--1--3--|
p.m.........| p.m......| p.m....|
Rhy Fig (3)
D |------------------------------------------------------------------|
A |------------------------------------------------------------------|
F |------------------------------------------------------------------|
C |------------------------------------------------------------------|
G |------------------------------------------------------------------|
D |1-1-1-1-1-1-1-1-4-4-4-4-4-4-4-4-1-1-1-1-3-3-3-3-1-1-1-1-3-3-3-3---|
Trem Pick All Above ^
Rhy Fig (4)
I Didn't know how to write the rhythm for this part but
if you listen to the song you'll hear it!!
D |------------------------------------------------------------------|
A |------------------------------------------------------------------|
F |12-12-12-12-12-12-12-12-12-12-12-12-12-12-12-12-12-12-12-12--11-11|
C |10-10-10-10-10-10-10-10-10-10-10-10-10-10-10-10-10-10-10-10---9--9|
G |------------------------------------------------------------------|
D |------------------------------------------------------------------|
D |-------------------------------------------------------|
A |-------------------------------------------------------|
F |11-11-11-11-11-11-11-11-11-11-11-11-11-11-11-11-11-11--|
C |-9--9--9--9--9--9--9--9--9--9--9--9--9--9--9--9--9--9--|
G |-------------------------------------------------------|
D |-------------------------------------------------------|
Rhy Fig (5)
D |----------------------------------------|
A |----------------------------------------|
F |----------------------------------------|
C |----------------------------------------|
G |----------------------------------------|
D |-3-1-1-1---3-1-1-1---3-1-1-1---3-1-3-1--|
p.m........................................|
D |----------------------------------------|
A |----------------------------------------|
F |----------------------------------------|
C |----------------------------------------|
G |----------------------------------------|
D |-3-1-1-1---3-1-1-1---3-1-1-1---3-1-3-1--|
p.m........................................|
D |----------------------------------------|
A |----------------------------------------|
F |----------------------------------------|
C |----------------------------------------|
G |----------------------------------------|
D |-4-1-1-1---4-1-1-1---4-1-1-1---4-1-4-1--|
p.m........................................|
D |----------------------------------------|
A |----------------------------------------|
F |----------------------------------------|
C |----------------------------------------|
G |----------------------------------------|
D |-1-1-1-1---1-1-1-1---1-1-1-1---1-1-1-1--|
p.m........................................|
Rhy Fig (6)
I Didn't know how to write the rhythm for this part but
if you listen to the song you'll hear it!!
Here are the notes for it anyway and the order in which they appear.
D |---------------------------------------------------------------|
A |---------------------------------------------------------------|
F |--12--------13---12-------13---14-------13---14-------------13-|
C |---------------------------------------------------------------|
G |---------------------------------------------------------------|
D |---------------------------------------------------------------|
D |---------------------------------------------------------------|
A |---------------------------------------------------------------|
F |--12--------13---12-------13---14-------13---14---------16-----|
C |---------------------------------------------------------------|
G |---------------------------------------------------------------|
D |---------------------------------------------------------------|
Rhy Fill (a)
D |------------------|
A |------------------|
F |------------------|
C |------------------|
G |------------------|
D |-1-1-1-1-1-1-1-1--|
p.m...................|
****************
*Song Structure*
****************
Rhy Fig (1) x 8
Rhy Fig (2) x 4
Rhy Fill (a) x 1
Rhy Fig (2) x 8
Rhy Fig (3) x 4
Rhy Fig (1) x 4
Rhy Fig (2) x 4
Rhy Fig (3) x 4
Rhy Fig (4) x 2
Rhy Fig (5) x 2
Rhy Fig (1) x 4
Rhy Fig (2) x 8
Rhy Fig (3) x 4
Rhy Fig (4) x 2
Rhy Fig (5) x 2
Rhy Fig (6) x 2
Rhy Fig (2) x 4
Rhy Fig (3) x 4
****************
* Lyrics *
****************
Spoken: He has not confessed, he has made no statement,
Charges of murder have been accepted against him.
Judges have decimated
Meaning of our laws
Already guilty?
Something has a flaw
Wrongly accused
Blindly confused
Open your eyes
Try to realize
Chorus: Don't you know
You can't see
Too damn blind
To judge me!
Wrongly accused
Blindly confused
Open your eyes
Try to realize
Repeat Chorus
Laws are meant to follow
But they've mislead you
Conceal their meanings
So they can suit you
Misjudged by the system
No one ever knows
Adding injury to insult
No one ever knows
No one
No one knows
No one
No one
No one knows...
Judges have decimated
Meanings of our laws
Already guilty?
Something has a flaw
Wrongly accused
Blindly confused
Open your eyes
Wake up, realize!
Repeat Chorus, 3rd Verse
Scapegoat
Scapegoat
Scapegoat
Scape - Goat
Scape - Goat
=======================================================================
***********************
*Satan's Little Helper* [email protected]
*********************** --------------------------
"And here's my apology and one more thing .... FUCK YOU"
Suicidal Tendencies RIP
=======================================================================


Ваше мнение



Капча