-##
Date: Thu, 21 Dec 1995 12:07:43 -0700 (MST)
From: Patrick Dixon
Subject: Resistancia! by Fear Factory
iResistancia! By Fear Factory
From the Demanufacture Digipak
TUNE DOWN 1/2 step, then drop low Eb to Db
INTRO., VERSE 1st time
-----------|------------|-------------
-----------|------------|-------------
-----------|------------|-------------
-----------|------------|-------------
-1-0-0-0-0-|1-3-3-1-3-3-|-1-3-3-1-4-4-
-1-0-0-0-0-|1-3-3-1-3-3-|-1-3-3-1-4-4-
PRE CHORUS:
-------------------------
-------------------------
-------------------------
------------------------- "They don't know who you are, they don't
-7-7-5-5-5-5-7-7-8-8-8-8- care..."
-7-7-5-5-5-5-7-7-8-8-8-8-
CHORUS
--------------------------------- Mute open strings
---------------------------------
--------------------------------- "Out of sight, Out of mind."
---------------------------------
-0-0-6-5-0-0-6-5-0-0-6-5-0-0-0-0- i know this is incorrect, but it
-0-0-6-5-0-0-6-5-0-0-6-5-0-0-0-0- works.
Improvise Solo.
ORDER:
Intro
Verse
Pre Chorus
Verse
Pre Chorus
Chorus
Solo
Pre Chorus
Chorus
"I am a thorn in your eye am a thorn in your eye."--Fear Factory




Ваше мнение



Капча