-##
FROM: [email protected]
Fear Factory
Demanufacture
Replica
Ok, I just got this album, and this song seemed to be the
easiest to figure out so far, yet It's still wrong =/
Oh well, Here goes
****DROPPED D TUNING****************
1E
2B
3G
4D
5A
6D
P.M. Throughout
|-----------------------------------------------------------------|
|-----------------------------------------------------------------|
|-----------------------------------------------------------------|
|-----------------------------------------------------------------|
|-----------------------------------------------------------------|
|-0-0-0-0-0-0-0-3--3-3-3-5---2-2-2-2-2-2-2-3--3-3-3-2-------------|
|-----------------------------------------------------------------|
|-----------------------------------------------------------------|
|-----------------------------------------------------------------|
|-----------------------------------------------------------------|
|0--0---3-----3--3--5------2-2---3----3-3--2----------------------|
|0--0---3-----3--3--5------2-2---3----3-3--2----------------------|
|-----------------------------------------------------------------|
|-----------------------------------------------------------------|
|-----------------------------------------------------------------|
|-----------------------------------------------------------------|
|-3----5---2----2-2--0--5--7---4---4--4--0--3----5--2---2---------|
|-3----5---2----2-2--0--5--7---4---4--4--0--3----5--2---2---------|
|-----------------------------------------------------------------|
|-----------------------------------------------------------------|
|-----------------------------------------------------------------|
|-----------------------------------------------------------------|
|-----------------------------------------------------------------|
|-0--00--00-0-0-0-0-0-0--0--0-0--0-0-0-0--0-0-0-0-0---------------|
That's all I know of it, Its completely wrong but sounds close
to it.
I also know a little of "Body Hammer" but I'm too tired to do
that right now
Lyrics:
Huh!
There is no love
I am a duplication
Innocently
I was conceived
So violently
There was no love
There was no love for me
There was only hatred
I am rape
I am hate
I am rape
I am hate
Every day I feel anonymous hate
Forever in the shadow of disgrace
I am rape
I am hate
I am rape
I am hate
Filled with pain
A bruised and darkened soul
Spare me from the
Life that's full of misery
I dont want to live that way
I dont want to live that way
There is no love
Everyday I feel anonymous hate
Forever in the shadow of disgrace
I am rape
I am hate
I am rape
I am hate
Filled with pain
A bruised and darkened soul
Spare me from the
Life that's full of misery
I am so
Filled with pain
A bruised and darkened soul
Spare me from the
Life that's full of misery
I dont want to live that way
I dont want to live that way
I dont want to live that way
I dont want to live that way
I am so
Filled with pain
A bruised and darkened soul
Spare me from the
Life that's full of misery
Spare me from the
Life that's full of pain
Spare me from the
life that's full of pain
I dont want to live that way
I dont want to live that way
From: User smehnle
Subject: FearFactory
Date: Fri, 11 Aug 95 19:05:03 MESZ
Replica - Fear Factory
Tune down 2 steps ... ( I think )
or use dropped-d tuning
Play x times
E--------------------------------------------------------------
B--------------------------------------------------------------
G--------------------------------------------------------------
D--------------------------------------------------------------
A--------------------------------------------------------------
E-0-0-0-0-0-0-3-------3-3-3-5------2-2-2-2-3-----3-3-3-1-------
then...
E--------------------------------------------------------------
B--------------------------------------------------------------
G--------------------------------------------------------------
D-2-2-2-2-2-2-5-------5-5-5-7------0-0-0-0-5-----5-5-5-3-------
A-2-2-2-2-2-2-5-------5-5-5-7------0-0-0-0-5-----5-5-5-3-------
E-0-0-0-0-0-0-3-------3-3-3-5------2-2-2-2-3-----3-3-3-1-------
Bridge
E--------------------------------------------------------------
B--------------------------------------------------------------
G--------------------------------------------------------------
D-5-7-4-7-9-6-----5-7-4------0-0-0-0-0-0-0-0-0-0-0-0-0-0-0-0-0-
A-5-7-4-7-9-6-----5-7-4------0-0-0-0-0-0-0-0-0-0-0-0-0-0-0-0-0-
E-3-5-2-5-7-4-----3-5-2------2-2-2-2-2-2-2-2-2-2-2-2-2-2-2-2-2-

Please have fun .........
This song was tabbed by Swen Ehnle and Alen Ljubic
For corrections mail me at [email protected]


Ваше мнение



Капча