----------------------------------------------------------
Replica - Fear Factory (Demanufacture)
----------------------------------------------------------
Standard 6 String tuned down perfect 4th (B, E, A, D, F#, B)
LEGEND:

* -- palm-mute
H -- hammer-on

Riff A (all notes palm-muted)
B |--------------------------------------------------------|
F#|--------------------------------------------------------|
D |--------------------------------------------------------|
A |--------------------------------------------------------|
E |-------------------------2------------------------------|
B |-2-2-2-2-2-2-2-5---5-5-5-----4-4-4-4-4-4-4-5---5-5-5-3--|

Riff B (all notes palm-muted)
B |---------------------------------------------------------------|
F#|---------------------------------------------------------------|
D |---------------------------------------------------------------|
A |---------------------------------------------------------------|
E |-------------------------2-------------------------------------|
B |-2-2-2-2-2-2-2-5---5-5-5-----4-4-4-4-4-4-4-4-5-5-5-5-3-3-3-3---|

Riff C (no palm-muting)
B |----------------------------------|
F#|----------------------------------|
D |----------------------------------|
A |-4--4-4-7-7-7-9---6--6-6-7-7-7-5--|
E |-4--4-4-7-7-7-7---7--7-7-7-7-7-5--|
B |-2--2-2-5-5-5-7---4--4-4-5-5-5-3--|
Riff D
B |------------------------------------|
F#|------------------------------------|
D |------------------------------------|
A |-4--4-4-7-7-7-9---6--6-6-7----------|
E |-4--4-4-7-7-7-7---7--7-7-7----------|
B |-2--2-2-5-5-5-7---4--4-4-5-5-5-5-3--|
* * * *
Riff E (all notes palm-muted)
B |------------------------------------------------------------------|
F#|------------------------------------------------------------------|
D |------------------------------------------------------------------|
A |------------------------------------------------------------------|
E |-------------------------2-2-2-2----------------------------------|
B |-2-2-2-2-2-2-2-2-5-5-5-5---------4-4-4-4-4-4-4-4-5-5-5-5-3-3-3-3--|

Riff F
B |---------------------------------------------------------|
F#|---------------------------------------------------------|
D |---------------------------------------------------------|
A |-7---9-6------9---11--8------7---9-6---------------------|
E |-7---7-7------9----9--9------7---7-7----H----------------|
B |-5---7-4------7----9--6------5---7-4---0-22-2-22-222222--|
* ** * ** ******
Riff G (all notes palm-muted)
B |-------------------|
F#|-------------------|
D |-------------------|
A |-------------------|
E |--H----------------|
B |-0-22-2-22-222222--|


Riff H (all notes palm-muted & tremelo picked)
B |------------------------------|
F#|------------------------------|
D |------------------------------|
A |------------------------------|
E |------------------------------|
B |-222222222222222222222222222--|

Song Structure
Riff A 3x
Riff B 1x
Riff C 3x
Riff D 1x
Riff A 3x
Riff B 1x
Riff C 1x
Riff D 1x
Riff A 4x
Riff E 2x
Riff F 2x
Riff G 3x
Riff A 1x
Riff B 1x
Riff C 1x
Riff D 1x
Riff A 2x
Riff E 2x
Riff F 4x
Riff G 1x
Riff H 1x
Riff F 4x
Riff G 1x
Riff H 1x




Ваше мнение



Капча