#----------------------------------PLEASE NOTE---------------------------------#
#This file is the author's own work and represents their interpretation of the #
#song. You may only use this file for private study, scholarship, or research. #
#------------------------------------------------------------------------------##
Date: Sat, 25 Nov 1995 16:15:13 -0700 (MST)
From: Patrick Dixon
Subject: TAB: PISSCHRIST by FEAR FACTORY
Pisschrist, by Fear Factory
*note: i'm not sure how low Dino tunes his axe, but this is pretty close
if you tune down one full step. (D,G,C,etc)
INTRO
-----------
-----------
-----------
----------- Repeat as many times as you want.
-----------
-1-1-1-1-1-
VERSE/CHORUS
--------------------------
--------------------------
-------------------------- Repeat
--------------------------
------------2-----2-----2-
-1-1-1-1-1-1-1-1-1-1-1-1--
PRECHORUS
---------------------
---------------------
---------------------
-----------------2-3-
-2-2-2-2-2-2-2-2-0-1-
-0-0-0-0-0-0-0-0-----
|PM |
END RIFF
---------------------------- |--------------------------------------
---------------------------- |--------------------------------------
----------------------------o|--------------------------------------
----------------------------o|-12-12-12-12-11-11-11-11-9-9-9-9------
-9-9-9-9-9-9-9-9-9-9-------- |-10-10-10-10-9--9--9--9--7-7-7-7-9--9-
-7-7-7-7-7-7-7-7-7-7-8-7-5-7 |---------------------------------7--7-
LYRICS
WHERE ARE WE NOW?
WHEN WE ARE BLIND
ABANDON FAITH
YOU LEFT BEHIND
WERE YOU BETRAYED?
OR DID YOU LIE?
OUR COMMON FATE
OUR COMMON DEMISE
WHERE IS THE SON?
TO LIGHT THE WAY
ALONG THE PATH
OF OUR DISMAY
LOOK TO THE SKY
ON JUDGEMENT DAY
A HUMAN GOD
THAT WAS MAN-MADE
SO WE LIE
SO WE LIE
SO WE LIE
SO WE LIE
AND SO WE RISE
JUST TO FAL DOWN
IN REALITY
YOU'RE NEVER FOUND
I'M REACHING OUT
WITH SEALED EYES
I GRAB FOR LIGHT
VISIONS DECRIED
LOOK TO THE SKY
ON JUDGEMENT DAY
A HUMAN GOD
THAT WAS MAN-MADE
SO WE LIE
SO WE LIE
SO WE LIE
SO WE LIE
FACE DOWN, ARMS OUT
NAILED TO THE CROSS OF DOUBT
BLOOD RUNS, LIKE RAIN
DROWNING FOR THIS WORLD IN VAIN
CROWN OF BLACK THORNS
HUMAN SKIN RIPPED AND TORN
CROWN OF BLACK THORNS
HUMAN SKIN RIPPED AND TORN
WHERE IS YOUR SAVIOR NOW? (x11)




Ваше мнение



Капча