FEAR FACTORY - PISS CHRIST
From the Album DEMANUFACTURE
Copyright 1995 The All Blacks B.V./
Roadrunner Records

Version 1.1 - May 96

Transcription Done By: Richard Broadhead II()
For Questions, Comments, Corrections, or Newest Version;
please contact Rich Broadhead at

Check Out My Web Page, With More Transcriptions On It:


. - palm mute / - slide up to
- slide down to ~ - vibrato
h - hammer on p - pull off
() - ghost note > - accented note
X - percussive mute * - see comment

TUNING: Drop D(1:E 2:B 3:G 4:D 5:A 6:D)

Starts with about 5 seconds of effects

Play The Following 4 times, with a pause after each one
|-------------------|
|-------------------|
|-------------------|
|-------------------|
|-1-1-1-1-1-1-1-1-1-|
|-1-1-1-1-1-1-1-1-1-|
. . . . . . . . .

Riff A
|--------------------------------------------------------------------------|
|--------------------------------------------------------------------------|
|--------------------------------------------------------------------------|
|--------------------------2------------2------------2---------------------|
|-1-1-1-1-1-1-1-1-1--1--1--0--1-1-1--1--0--1-1-1--1--0--1--1-1-1-1-1-1-1-1-|
|-1-1-1-1-1-1-1-1-1--1--1-----1-1-1--1-----1-1-1--1-----1--1-1-1-1-1-1-1-1-|
. . . . . . . . . . . . . . . . . . . . . . . . . . . .

continuation of Riff A
|----------------------------------------------------------------------------|
|----------------------------------------------------------------------------|
|----------------------------------------------------------------------------|
|-------2------------2------------2--------------------------2------------2--|
|-1--1--0--1-1-1--1--0--1-1-1--1--0--1-1-1--1-1-1--1-1-1--1--0--1-1-1--1--0--|
|-1--1-----1-1-1--1-----1-1-1--1-----1-1-1--1-1-1--1-1-1--1-----1-1-1--1-----|
. . . . . . . . . . . . . . . . . . . . . . . .

continuation of Riff A
|----------------------------------------------------------------------|
|----------------------------------------------------------------------|
|----------------------------------------------------------------------|
|-----------2----------------------------2------------2------------2---|
|-1-1-1--1--0--1--1-1-1-1-1-1-1-1--1--1--0--1-1-1--1--0--1-1-1--1--0---|
|-1-1-1--1-----1--1-1-1-1-1-1-1-1--1--1-----1-1-1--1-----1-1-1--1------|
. . . . . . . . . . . . . . . . . . . . . . .

continuation of Riff A(end of Riff A)
|--------------|
|--------------|
|--------------|
|--------------|
|-1-1-1--1-1-1-|
|-1-1-1--1-1-1-|
. . . . . .

Riff B
|----------------------------------------------------------------------------|
|----------------------------------------------------------------------------|
|----------------------------------------------------------------------------|
|-----------2------------2------------2---------------------------2----------|
|-1-1-1--1--0--1-1-1--1--0--1-1-1--1--0--1-1-1-1-1-1-1-1-1--1--1--0--1-1-1--1|
|-1-1-1--1-----1-1-1--1-----1-1-1--1-----1-1-1-1-1-1-1-1-1--1--1-----1-1-1--1|
. . . . . . . . . . . . . . . . . . . . . . . . . . .

continuation of Riff B (end of Riff B)
|-------------------------------|
|-------------------------------|
|-------------------------------|
|-2------------2----------------|
|-0--1-1-1--1--0--1-1-1--1-1-1--|
|----1-1-1--1-----1-1-1--1-1-1--|
. . . . . . . . . .

Repeat Riff B a total of 8 times

Riff C
|-----------------------------------------------------------------------|
|-----------------------------------------------------------------------|
|-----------------------------------------------------------------------|
|-----------------------------------------------------------------------|
|-0-0-0-0-5-0-0-0-0-0-0-5-0-0-0-0-0-0-5-0-0-2-4-0-0-0-0-5-0-0-0-0-0-0-5-|
|-0-0-0-0-5-0-0-0-0-0-0-5-0-0-0-0-0-0-5-0-0-2-4-0-0-0-0-5-0-0-0-0-0-0-5-|

continuation of Riff C (end of Riff C)
|-------------------------------|
|-------------------------------|
|-------------------------------|
|-------------------------------|
|-0-0-0-0-0-0-5-0-0-5-----------|
|-0-0-0-0-0-0-5-0-0-5-----------|

Play Riff C a total of 4 times
Repeat Riff B a total of 4 six times
Repeat Riff C four times

Riff D (end of Riff D)
|----------------------------------------------------|
|----------------------------------------------------|
|----------------------------------------------------|
|-----------2------------2------------2--------------|
|-1-1-1--1--0--1-1-1--1--0--1-1-1--1--0--1-1-1--2--4-|
|-1-1-1--1-----1-1-1--1-----1-1-1--1-----1-1-1--2--4-|
. . . . . . . . . . . . . . .

Play Riff D a total of four times

pre-into-chorus
|-----|
|-----|
|-----|
|-----|
|-1-1-|
|-1-1-|
. .

Chorus
|-----------------|-----------------|---------------------------------|
|-----------------|-----------------|---------------------------------|
|-----------------|-----------------|---------------------------------|
|-7---11---5---9--|-7---11---5---9--|-7-------11-------5-------9------|
|-7---11---5---9--|-7---11---5---9--|-7--777--11--777--5--555--9--555-|
|-7---11---5---9--|-7---11---5---9--|-7--777--11--777--5--555--9--555-|
... ... ... ...
Play Riff A
Play Riff B four times
Play Riff C four times
Play Riff D four times
pre-into-chorus
Then Chorus

Crown of Black Thorns Riff
|--------------------------------------------------------------------------|
|--------------------------------------------------------------------------|
|--------------------------------------------------------------------------|
|--------------------------------------------------------------------------|
|---------------------------------5-4-2-4----------------------------------|
|-5p4444444445p444444445p44444444-5-4-2-4-5p44444444-5p44444444-5p44444444-|
. . . .
continuation of Crown of Black Thorns Riff (end of Riff)
|-----------------------------------------------------------|
|-----------------------------------------------------------|
|-----------------------------------------------------------|
|---------7-----7-----6-----6-----9-----9-------------------|
|-5-4-2-4-5-----5-5-4-4-----4-5-4-7-----7-5-4-9-9--9-9-9-9--|
|-5-4-2-4---0-0---5-4---0-0---5-4---0-0---5-4-9-9--9-9-9-9--|
. . . . . . . . . . . . . . . . . . . .

Play Crown of Black Thorns Riff four times

Where's Your Savior Riff (end of Riff)
|---------------------------------------------------|
|---------------------------------------------------|
|---------------------------------------------------|
|-7-----7-----6-----6-----9-----9-------------------|
|-5-----5-5-4-4-----4-5-4-7-----7-5-4-9-9--9-9-9-9--|
|---0-0---5-4---0-0---5-4---0-0---5-4-9-9--9-9-9-9--|
. . . . . . . . . . . . . . . .

Play Where's Your Savior Riff four times

Where's Your Savior Riff #2 (end of Riff)
|------------------------------------------------------|
|------------------------------------------------------|
|-7------7-----6------6-----9------9-------------------|
|-7------7-----6------6-----9------9-------------------|
|-5------5-5-4-4------4-5-4-7------7-5-4-9-9--9-9-9-9--|
|---0000---5-4---0000---5-4---0000---5-4-9-9--9-9-9-9--|
.... . . .... . . .... . . . . . .

Play Where's Your Savior Riff #2 four times and end with a D5

For Questions, Comments, Corrections, or Newest Version;
please contact Rich Broadhead at

Check Out My Web Page, With More Transcriptions On It:


Ваше мнение



Капча