New Breed-Fear Factory

5-string bass

VERSE (Guitar riff):

G|-------------------------------|
D|-------------------------------|
A|-------------------------------|
E|-------------------------------|
B|--4-3--4-3--4-3--4-3--4--4--4--|

Bass pedals B (open B-string)*


PRE-CHORUS:

A|--------------------------------------|
E|--------------------------------2--2--|
B|--4--4--4--4--2--2--4--4--4--4--------|

Born Bred Beaten Born Bred Beaten...


CHORUS:

A|---------------------------------------|
E|--4-4-4----------2-2-2--------4-4-2-2--|
B|----------3-3-3---------2-2-2----------|

New Breed.....

OUTRO:

A|-----------------------------------------------|
E|-----------------------------------------------|
B|--4-0-3-4--4-0-3-4--4-0-3-4--4-0-3-4--4-4-4-4--|



* I made a slight mistake. For the first part the bass pedals the fourth
fret on the B-string.




Ваше мнение



Капча