-#
Date: Tue, 30 Jan 1996 15:16:09 +0000 (GMT)
From: JAYMZ
Subject: TAB: MARTYR - FEAR FACTORY
[email protected] posted a version of this about a month ago. Nice try fella,
but thanks for giving me ths inspriation to transcribe it myself. This I
reckon is quite accurate.
MARTYR - FEAR FACTORY
This is the way I transcribed it, and involves no down tuning. Sounds
good to me though:
Into:
|---------------------------------------------------------------------|
|---------------------------------------------------------------------|
|------------------------------------------------------4--------------|
|--5---6---5----5---6---7----5---6---5----5---6---7----4--------------|
|--5-4-6---5----5-4-6---7----5-4-6---5----5-4-6---7----2--------------|
|--3-4-4-0-3----3-4-4-0-5----3-4-4-0-3----3-4-4-0-5----2--------------|
pm pm pm pm
Verse bit:
|--------------------------------|
|--------------------------------|
|--------------------------------|
|--5---6-----5----5---6-----7----|
|--5-4-6-----5----5-4-6-----7----|
|--3-4-4-0-0-3----3-4-4-0-0-5----|
pm pm pm pm
Got to get away...bit:
|---------------------------------|
|---------------------------------|
|---------------------------------|
|---------------------------------|
|---------------------------------|
|--3//-0-4//-0-3---3//-0-4//-0/5--|
Interlude: Interlude: PartB
|-------------| |------------------------|
|-------------| |------------------------|
|--5-5-5-4----| |------------------------|
|--5-5-5-4----| |------------------------|
|--3-3-3-2----| |-2-----1--------2-----0-|
|--3-3-3-2----| |----0--------------0----|
Interlude(Heavy Part):
|-----------------------------------------|
|-----------------------------------------|
|------------5-5-5----------------5-5-5---|
|------------5-5-5----------------5-5-5---|
|-2-----1----3-3-3-----2-----0----3-3-3---|
|----0-------3-3-3--------0-------3-3-3---|
Break:
|-----------------------------------------|
|-----------------------------------------|
|-----------------------------------------|
|---5-----5-----5-------------------------|
|---5-----5-----5-------------------------|
|---3-----3-----3-------3//-4-3-4-3-4-3---|

There you go.......I pretty sure its not the way Fear Factory play it, but
it sounds fine when I play along with the CD. Remember......for it to sound
cool - shit loads of distortion, and volume on "fucking loud".
JAYMZ


Ваше мнение



Капча